PrimaNota.ru - самый крупный в мире бесплатный архив песенных текстов, аккордов, табулатур и нот


The Living End - Monday - текст песни, таба, бас-таба, видео

Регистрация Запомнить меня
Войти через:  Facebook Google Twitter Vk Yandex Mail.ru

The Living End - Monday - текст песни, таба, бас-таба, видео

Печатать
Просмотров: 165
Авторы: Chris Cheney

Song: Monday  
Band: The Living End
Album: THe Living End

pm= Palm muted
^= Bend up
^v= Bend up, then bring it back down
h= Hammer on
p= Pull off 
~= vibrado
s= slide

Intro: x2

          E                                      B
e-------I--------------------------------------I-----------------------------------I
b-------I--------------------------------------I-----------------------------------I
g-------I--9---------------------------------9-I-----------------------------------I
d-------I--9---------------------------------9-I-9---------------------------------I
a----7--I--7--7--7-7--7-7--7-7--7-7--7-7--7--7-I-9---------------------------------I
e--0-0--I--------------------------------------I-7--7--7-7--7-7--7-7--7-7--7-7--7-7I
             pm pm pm pm pm pm pm pm pm pm        pm pm pm pm pm pm pm pm pm pm pm
   
   A                                    B
e-------------------------------------I---------------------------------------I
b-------------------------------------I---------------------------------------I
g-------------------------------------I---------------------------------------I
d--7--------------------------------7-I-9-------------------------------------I
a--7--------------------------------7-I-9-------------------------------------I
e--5--5--5-5--5-5--5-5--5-5--5-5--5-5-I-7--7--7-7--7-7--7-7--7-7--7-7--7-7--7-I
  
     pm pm pm pm pm pm pm pm pm pm         pm pm pm pm pm pm pm pm pm pm pm pm


Verse: x2

E,B,A


Pre Chorus: All up strokes

   C#           G#           F#           G#  A  B B
e--4--4--4--4-I-4--4--4--4-I-2--2--2--2-I-4-----------I
b--5--5--5--5-I-4--4--4--4-I-2--2--2--2-I-4-----------I
g--6--6--6--6-I-5--5--5--5-I-3--3--3--3-I-5---2--4-4--I
d--6--6--6--6-I-6--6--6--6-I-4--4--4--4-I-6---2--4-4--I
a--4--4--4--4-I-6--6--6--6-I-4--4--4--4-I-6---0--2-2--I
e-------------I-4--4--4--4-I-2--2--2--2-I-4-----------I

Chorus:

  E Eb C# B  A   B 
e----------I----------
b----------I----------
g--9-8-6-4-I-2-2-4-4--   x2
d--9-8-6-4-I-2-2-4-4--
a--7-6-4-2-I-0-0-2-2--
e--0-0-----I----------

   A         B            E   Eb  C# B   A       B      E
e--0-0-0-0-I-----------I----------4----I----------------0--I
b--0-0-0-0-I-4--4--4-4-I----------5--4-I--------------4-0--I
g--2-2-2-2-I-4--4--4-4-I--9-9-8-8-6--4-I-2----2--4----4-1--I
d--2-2-2-2-I-4--4--4-4-I--9-9-8-8-6--4-I-2----2--4----4-2--I
a--0-0-0-0-I-2--2--2-2-I--7-7-6-6-4--2-I-0----0--2----2-2--I
e----------I-----------I--0-0-0-0------I----------------0--I

Intro: 

Verse: 

Pre Chorus:

Chorus:

Pre Solo:

                           C#    C
e--4-4---------4-4------------I------------------I
b------5-5---------5-5--------I--5--5--5---5-5---I
g----------6-6---------6-6-6--I--5--5--5---5-5---I
d--------------------------6--I--5--5--5---5-5---I
a--------------------------4--I--3--3--3---3-3---I
e-----------------------------I------------------I

                                Ab  Abd  Ab
e--4-4---------4-4------------I--4---4---4-----I
b------5-5---------5-5--------I--4---4---4-----I
g----------6-6---------6-6-6--I--5---5---5-----I
d--------------------------6--I--6---6---6-----I
a--------------------------4--I--6---6---6-----I
e-----------------------------I--4---5---4-----I

   A     B       Ab       C#  B     A          B
e--0---0-------I-4-4---4----------I---------------I------I
b--0---0-4---4-I-4-4---4----------I---------------I--12--I
g--2---2-4---4-I-5-5---5--6-6-4-4-I-2-2--2--2--4--I--11^-I
d--2---2-4---4-I-6-6---6--6-6-4-4-I-2-2--2--2--4--I------I
a--0---0-2---2-I-6-6---6--4-4-2-2-I-0-0--0--0--2--I------I
e--------------I-4-4---4----------I---------------I------I

Solo:

e-------------------------------------------------------------I
b-------------------------------------------------------------I
g-----------------2--2------------4--4-------------5--5--7-7--I  x2
d--2-2------------2--2----2-4p2p0-4--4----4-6p4p0--5--5--7-7--I
a--2-2----2-4p2p0-0--0--4---------2--2--6----------3--3--5-5--I
e--0-0--4-----------------------------------------------------I

e----------------------I-------------------------------I---------------------12-9-------I
b--12---12---12--------I-------------------------------I--------------------------10----I
g--11^--11^--11^v^-9~--I--7^---------------------------I----6-9-11^v--9h11h9---------9~-I
d----------------------I-----9-9---7h9p7-7---7---------I-s7-----------------------------I
a----------------------I-------------------9---9-9s7-5-I--------------------------------I
e----------------------I-------------------------------I--------------------------------I

e--------------------------------------I----------12-12----12--I
b--0-0-0-0-4-0-0-5-0-0-7-0-0-8-0-0-9-0-I-12-12-12-------14-----I
g--------------------------------------I-----------------------I
d--------------------------------------I-----------------------I
a--------------------------------------I-----------------------I
e--------------------------------------I-----------------------I

This next bit is extremly fast

e--16p12----14p12----16p12----14p12----16p12----14p12----16p12----14p12-----I
b--------12-------12-------12-------12-------12-------12-------12-------12--I
g---------------------------------------------------------------------------I
d---------------------------------------------------------------------------I
a---------------------------------------------------------------------------I
e---------------------------------------------------------------------------I

e------14----------------I-----12----12----12----12-------------I
b--14^----14^--14^v^-12--I--12----12----12----12----------------I
g------------------------I--14^---14^---14^---14^---14^v-12-----I
d------------------------I----------------------------------14--I
a------------------------I--------------------------------------I
e------------------------I--------------------------------------I

Another little quick bit

e--7p5p4-5p4---4------------------------------I
b------------7---7p5-7p5p4-5p4p2-4p2p0-2p0----I
g------------------------------------------2--I
d---------------------------------------------I
a---------------------------------------------I
e---------------------------------------------I

Bridge:

e--0--0--0-0-0-0----------------I
b--5--4--2-2-0-0-2-2-2-2-4-4-4-4I
g----------------2-2-----4-4----I x2
d-------------------------------I
a-------------------------------I
e-------------------------------I


e-----------------------I---------------------------------I
b--2--2--3--4---4--4-4--I---------------------------------I
g--2--2-----------------I--9---8---6---4--2-2---2-4-4---4-I
d-----------------------I--9---8---6---4--2-2---2-4-4---4-I
a-----------------------I--7---6---4---2--0-0---0-2-2---2-I
e-----------------------I--0---0---0----------------------I

"No school today..."

e--4-------------------------------------4-------------------------------------I
b--5-------------------------------------4-------------------------------------I
g--6-------------------------------------5-------------------------------------I
d--6-------------------------------------6-------------------------------------I
a--4--4--4-4--4-4--4-4--4-4--4-4--4-4--4-6-------------------------------------I
e----------------------------------------4--4--4-4--4-4--4-4--4-4--4-4--4-4--4-I
     pm pm pm pm pm pm pm pm pm pm pm pm    pm pm pm pm pm pm pm pm pm pm pm pm

e----2---2---2---2--4-4----------I
b----2---2---2---2--4-4----------I
g----3---3---3---3--5-5----------I
d--4-4-4-4-4-4-4-4--6-6----7--9--I
a--4-4-4-4-4-4-4-4--6-6----7--9--I
e--2-2-2-2-2-2-2-2--4-4----5--7--I

Chorus:

Outro:

"Monday, it seems like such a lie"

e------------------------------------I
b--------------------12--12--12------I
g--2-2---2--4-4--4---11^-11^-11^v^-9-I
d--2-2---2--4-4--4-------------------I   x2
a--0-0---0--2-2--2-------------------I
e------------------------------------I


"Monday, it's just a lie"

e--------------------------0--I
b--------------------------0--I
g--2-2---2--4--4--4--------1--I
d--2-2---2--4--4--4--5^----2--I
a--0-0---0--2--2--2--5^----2--I
e--------------------3^----0--I


And that is how it's done. Thank you very much!
Jason Zarpellon
jason_zarps@hotmail.com
Добавлено: 06.07.2012
Другие материалы по этой песне:

Страница создана 01.03.2012
http://primanota.ru/the-living-end/monday-chords.htm
Привет, Гость.
Предлагаем пройти революционный курс по гитаре.
Подарок от PrimaNota.Ru, забирай!