PrimaNota.ru - самый крупный в мире бесплатный архив песенных текстов, аккордов, табулатур и нот


The Living End - Moment In The Sun - таба, бас-таба, видео

Регистрация Запомнить меня
Войти через:  Facebook Google Twitter Vk Yandex Mail.ru

The Living End - Moment In The Sun - таба, бас-таба, видео

Печатать
Просмотров: 122
The Living End - Moment in the Sun

Tabbed by Shaun 'Bones' Boer
BonesTLE@hotmail.com
Enjoy - I'll put the rest up soon.

Intro:  
e---------------------------------------------------|
b--10-10---10-10---10-10---10-10---10-9-------------|
g--9--9----9--9----9--9----9--9----9--9-------------|
d--7--7----7--7----7--7----7--7----7--7-------------|
a--0--0----0--0----0--0----0--0----0--0-------------|
e---------------------------------------------------|

e---------------------------------------------------|
b--10-10---10-10---10-10---10-10---10-9-------------|
g--9--9----9--9----9--9----9--9----9--9-------------|
d--X--X----X--X----X--X----X--X----X--X-------------|
a--9--9----9--9----9--9----9--9----9--9-------------|
e---------------------------------------------------|
                     
e---------------------------------------------------|
b--10-10---10-10---10-10---10-10---10-9-------------|
g--7--7----7--7----7--7----7--7----7--7-------------|
d--0--0----0--0----0--0----0--0----0--0-------------|
a---------------------------------------------------|
e---------------------------------------------------|

e--9--9----9--9----9--9----9--9----9--7-------------|
b--7--7----7--7----7--7----7--7----7--7-------------|
g--7--7----7--7----7--7----7--7----7--7-------------|
d--0--0----0--0----0--0----0--0----0--0-------------|
a---------------------------------------------------|
e---------------------------------------------------|

Just listen to the timing and you should get it.
Добавлено: 27.04.2012
Другие материалы по этой песне:
  • Аккорды и текст

Страница создана 16.04.2012
http://primanota.ru/the-living-end/moment-in-the-sun-chords.htm
Привет, Гость.
Предлагаем пройти революционный курс по гитаре.
Подарок от PrimaNota.Ru, забирай!