PrimaNota.ru - самый крупный в мире бесплатный архив песенных текстов, аккордов, табулатур и нот


The Living End - I Get A Kick Out Of You - аккорды и текст, таба, видео

Регистрация Запомнить меня
Войти через:  Facebook Google Twitter Vk Yandex Mail.ru

The Living End - I Get A Kick Out Of You - аккорды и текст, таба, видео

Печатать
Просмотров: 142
I Get A Kick Out Of You
The Living End
		   -THE LIVING ENDm
                        -I Get A Kick Out Of You-

                       Transcribed by Michael Fryar
                           manumick20@yahoo.com


Nice cover song this. It's got your typical jazz 1,4,7,5 chords so yeah
for you people who havent heard the original, you can tell it's structured
from a jazz song.
At the start in the first fill chris actually stuffs up cos you can hear
a bum note in there so I've just left out that wrong note in this
transcription. (The song was quickly recorded a few years ago).
*The two guitar parts may not be in sequence with each other.*

~=vibrato
s=slide
h=hammer on
p=pull off
*pinch harmonic
^=bend
x=dead note
ect=keep playing as needed




INTRO:

Guitar 1:
   E     A     D     B
e--------------2-2----------------------|
b--------------3-3----------------------|
g--------2-2---2-2---4~-----------------|
d--2-2---2-2---0-0---4~-----------------|
a--2-2---0-0---------2~with whammy bar--|
e--0-0----------------------------------|

Guitar 2:
e---------------------------------------|
b---------------------------------------|
g---------------------------------------|
d---------------------------------------|
a---------------------------------------|
e---------------------------------------|


Guitar 1:
   E             A             D
e------------------------------2-2-2-2-2-2-2-2-2-2-2-2-2-2--|
b------------------------------3-3-3-3-3-3-3-3-3-3-3-3-3-3--|
g----------------2-2-2-2-2-2-2-2-2-2-2-2-2-2-2-2-2-2-2-2-2--|
d--2-2-2-2-2-2-2-2-2-2-2-2-2-2-0-0-0-0-0-0-0-0-0-0-0-0-0-0--|
a--2-2-2-2-2-2-2-0-0-0-0-0-0-0------------------------------|
e--0-0-0-0-0-0-0--------------------------------------------|

Guitar 2:
e-------------------------------------------------------|
b-------------------------------------------------------|
g--7-9-7-9^--9-9^-7-9^---------6s7-7-7-6s7-7-7-6s7-6-7--|
d-------------------------------------------------------|
a-------------------------------------------------------|
e-------------------------------------------------------|



VERSE 1:

Guitar 1:
   E             A             D             B
e------------------------------2-2-2-2-2-2-2-----------------|
b------------------------------3-3-3-3-3-3-3-----------------|
g----------------2-2-2-2-2-2-2-2-2-2-2-2-2-2-4-4-4-4-4-4-4---|
d--2-2-2-2-2-2-2-2-2-2-2-2-2-2-0-0-0-0-0-0-0-4-4-4-4-4-4-4---|
a--2-2-2-2-2-2-2-0-0-0-0-0-0-0---------------2-2-2-2-2-2-2---|
e--0-0-0-0-0-0-0---------------------------------------------|

Guitar 2:
e------------------------------10-10-10-10-----10-10--8-8---|
b------------------------------x--x--x--x-ect--x--x---x-x---|
g------------------------------7--7--7--7------7--7---5-5---|
d-----------------------------------------------------------|
a-----------------------------------------------------------|
e-----------------------------------------------------------|


Guitar 1:
   E             A             D             B
e------------------------------2-2-2-2-2-2-2-----------------|
b------------------------------3-3-3-3-3-3-3-----------------|
g----------------2-2-2-2-2-2-2-2-2-2-2-2-2-2-4-4-4-4-4-4-4---|
d--2-2-2-2-2-2-2-2-2-2-2-2-2-2-0-0-0-0-0-0-0-4-4-4-4-4-4-4---|
a--2-2-2-2-2-2-2-0-0-0-0-0-0-0---------------2-2-2-2-2-2-2---|
e--0-0-0-0-0-0-0---------------------------------------------|

Guitar 2:
e--7-------------|
b--x-------------|
g--4-------------|
d----------------|
a----------------|
e----------------|


Guitar 1:
   E             A             D             B
e------------------------------2-2-2-2-2-2-2-----------------|
b------------------------------3-3-3-3-3-3-3-----------------|
g----------------2-2-2-2-2-2-2-2-2-2-2-2-2-2-4-4-4-4-4-4-4---|
d--2-2-2-2-2-2-2-2-2-2-2-2-2-2-0-0-0-0-0-0-0-4-4-4-4-4-4-4---|
a--2-2-2-2-2-2-2-0-0-0-0-0-0-0---------------2-2-2-2-2-2-2---|
e--0-0-0-0-0-0-0---------------------------------------------|

Guitar 2:
e--------------------------------------------------|
b--------------------------------------------------|
g------------------------------6s7-6-7-6-7-6s7-7---|
d--------------------------------------------------|
a--------------------------------------------------|
e--------------------------------------------------|


Guitar 1:
   E               A
e------------------------|
b------------------------|
g--------------------2---|
d--2-2-2-2-2-2-2-2---2---|
a--2-2-2-2-2-2-2-2-0-0---|
e--0-0-0-0-0-0-0-0-------|

Guitar 2:
e--------------|
b--------------|
g--------------|
d--------------|
a--------------|
e--------------|


One guitar only for this part:
*finger pick it*

   D7M     E9   A13
e---------------------|
b----7-----7-----7----|
g----6-----7-----6----|
d----------x----------|
a--5-------7----------|
e----------------5----|




VERSE 2:


Guitar 1:
   E             A             D             B
e------------------------------2-2-2-2-2-2-2-----------------|
b------------------------------3-3-3-3-3-3-3-----------------|
g----------------2-2-2-2-2-2-2-2-2-2-2-2-2-2-4-4-4-4-4-4-4---|
d--2-2-2-2-2-2-2-2-2-2-2-2-2-2-0-0-0-0-0-0-0-4-4-4-4-4-4-4---|
a--2-2-2-2-2-2-2-0-0-0-0-0-0-0---------------2-2-2-2-2-2-2---|
e--0-0-0-0-0-0-0---------------------------------------------|


e-------------------------------10-10-10-----9--9--9----8---|
b-------------------------------x--x--x------x--x--x----x---|
g-------------------------------7--7--7------6--6--6----5---|
d-----------------------------------------------------------|
a-----------------------------------------------------------|
e-----------------------------------------------------------|


Guitar 1:
   E             A             D             B
e------------------------------2-2-2-2-2-2-2-----------------|
b------------------------------3-3-3-3-3-3-3-----------------|
g----------------2-2-2-2-2-2-2-2-2-2-2-2-2-2-4-4-4-4-4-4-4---|
d--2-2-2-2-2-2-2-2-2-2-2-2-2-2-0-0-0-0-0-0-0-4-4-4-4-4-4-4---|
a--2-2-2-2-2-2-2-0-0-0-0-0-0-0---------------2-2-2-2-2-2-2---|
e--0-0-0-0-0-0-0---------------------------------------------|


e--7---------------------------------------------------------|
b--x---------------------------------------------------------|
g--4---------------------------------------------------------|
d------------------------------------------------------------|
a------------------------------------------------------------|
e------------------------------------------------------------|


Guitar 1:
   E             A             D             B
e------------------------------2-2-2-2-2-2-2-----------------|
b------------------------------3-3-3-3-3-3-3-----------------|
g----------------2-2-2-2-2-2-2-2-2-2-2-2-2-2-4-4-4-4-4-4-4---|
d--2-2-2-2-2-2-2-2-2-2-2-2-2-2-0-0-0-0-0-0-0-4-4-4-4-4-4-4---|
a--2-2-2-2-2-2-2-0-0-0-0-0-0-0---------------2-2-2-2-2-2-2---|
e--0-0-0-0-0-0-0---------------------------------------------|


e------------------------------------------------------------|
b------------------------------------7-----------------------|
g--------------------------------7h9---9p7---7---------------|
d------------------------------------------9---9p7h9---------|
a------------------------------------------------------------|
e------------------------------------------------------------|

Guitar 1:
   E               A
e------------------------|
b------------------------|
g--------------------2---|
d--2-2-2-2-2-2-2-2---2---|
a--2-2-2-2-2-2-2-2-0-0---|
e--0-0-0-0-0-0-0-0-------|

Guitar 2:
e--------------|
b--------------|
g--------------|
d--------------|
a--------------|
e--------------|


*finger pick this:

   D7M     E9   A13
e---------------------|
b----7-----7-----7----|
g----6-----7-----6----|
d----------x----------|
a--5-------7----------|
e----------------5----|



BRIDGE: (use plectrum)

   D7         Am7      D7b9     G7M        C          (B7)
e---------------------------------------------------------------|
b-----3---------5--------4---------3----------------------------|
g----5-5-------5-5------5-5-------4-4---------------------------|
d---4---4------------------------4---4-----5-5-5-5--------------|
a--5-------------------5-------------------3-3-3-3ect-2-0-------|
e-------------5-----------------3-----3-------------------3-2---|

    Em
e-----7----7----7----7-----7----7----7----7---|
b-----8----8----8----8-----8----8----8----8---|
g-----9----9----9----9-----9----9----9----9---|
d---------------------------------------------|
a---------------------------------------------|
e---0-----0----0----0----0----0----0----0-----|

   E                       A13
e--0-0-0-0-0-0-0-0-3-3-3-3------|
b--0-0-0-0-0-0-0-0-3-3-3-3--7---|
g--1-1-1-1-1-1-1-1-1-1-1-1--6---|
d--2-2-2-2-2-2-2-2-2-2-2-2------|
a--2-2-2-2-2-2-2-2-2-2-2-2-0----|
e--0-0-0-0-0-0-0-0-0-0-0-0------|



CHORUS:

Guitar 1:
   E             A             D             B
e------------------------------2-2-2-2-2-2-2-----------------|
b------------------------------3-3-3-3-3-3-3-----------------|
g----------------2-2-2-2-2-2-2-2-2-2-2-2-2-2-4-4-4-4-4-4-4---|
d--2-2-2-2-2-2-2-2-2-2-2-2-2-2-0-0-0-0-0-0-0-4-4-4-4-4-4-4---|
a--2-2-2-2-2-2-2-0-0-0-0-0-0-0---------------2-2-2-2-2-2-2---|
e--0-0-0-0-0-0-0---------------------------------------------|

e--------------------------------s10-10-----s9--9--------8---|
b---------------------------------x--x-------x--x--------x---|
g--------------------------------s7--7------s6--6--------5---|
d------------------------------------------------------------|
a------------------------------------------------------------|
e------------------------------------------------------------|

Guitar 1:
   E             A             D             B
e------------------------------2-2-2-2-2-2-2-----------------|
b------------------------------3-3-3-3-3-3-3-----------------|
g----------------2-2-2-2-2-2-2-2-2-2-2-2-2-2-4-4-4-4-4-4-4---|
d--2-2-2-2-2-2-2-2-2-2-2-2-2-2-0-0-0-0-0-0-0-4-4-4-4-4-4-4---|
a--2-2-2-2-2-2-2-0-0-0-0-0-0-0---------------2-2-2-2-2-2-2---|
e--0-0-0-0-0-0-0---------------------------------------------|


Guitar 2:
e--7---------------------------------------------------------|
b--x---------------------------------------------------------|
g--4---------------------------------------------------------|
d------------------------------------------------------------|
a------------------------------------------------------------|
e------------------------------------------------------------|

Guitar 1:
   E             A             D             B
e------------------------------2-2-2-2-2-2-2-----------------|
b------------------------------3-3-3-3-3-3-3-----------------|
g----------------2-2-2-2-2-2-2-2-2-2-2-2-2-2-4-4-4-4-4-4-4---|
d--2-2-2-2-2-2-2-2-2-2-2-2-2-2-0-0-0-0-0-0-0-4-4-4-4-4-4-4---|
a--2-2-2-2-2-2-2-0-0-0-0-0-0-0---------------2-2-2-2-2-2-2---|
e--0-0-0-0-0-0-0---------------------------------------------|


Guitar 2:
e-----0--------------------------------------9--9---8--8-----|
b-----0--------------------------------------x--x---x--x-----|
g-----1--------------------------------------6--6---5--5-----|
d--2---------------------------------------------------------|
a--2---------------------------------------------------------|
e--0---------------------------------------------------------|


Guitar 1:
   E               A
e------------------------|
b------------------------|
g--------------------2---|
d--2-2-2-2-2-2-2-2---2---|
a--2-2-2-2-2-2-2-2-0-0---|
e--0-0-0-0-0-0-0-0-------|

Guitar 2:
e--7--7--------|
b--x--x--------|
g--4--4--------|
d--------------|
a--------------|
e--------------|



SOLO:

   (Over E but applying D7M  )
e--9-10-9------------------------------------------|
b---------12-10------------------10-13-12-10-------|
g---------------12-11-9-------11-------------11----|
d-----------------------12-13----------------------|
a--------------------------------------------------|
e--------------------------------------------------|


Solo from here is pretty much over the 1,4,7,5 progression (E,A,D,B)

e--------------------------------------------------------|
b--12---------------------12^-10-------------------------|
g-----12^-9------------11--------11----------------------|
d-----------11------12--------------12-10----10-12-10-9--|
a--------------------------------------------------------|
e--------------------------------------------------------|

                     This next section is really muddy to
                     work out so just play it like this
e-------------------:----------------------|
b----------10-------:----------------------|
g--9-11-12----12s11-7-8-9-10-11-12-13-14---|
d-------------------0-0-0-0--0--0--0--0----|
a-------------------:----------------------|
e-------------------:----------------------|

e--14p12-12p10-----10--14p10-12p10----10-14-12-12^-10------|
b---------------12-----------------12-----------------12---|
g----------------------------------------------------------|
d----------------------------------------------------------|
a----------------------------------------------------------|
e----------------------------------------------------------|

e---s10-s10----------------------|
b---s10-s10-12-10----------------|
g-----------------11-10^---------|
d------------------------12-12---|
a--------------------------------|
e--------------------------------|

The the next part I dont know cos its too fast too work out.
It's just over some type of E minor scale. Just play an aeolian
really fast or something.


e-----------------------|
b-------------8-*8^*s---|
g--7-7-10---7-----------|
d-----------------------|
a-----------------------|
e-----------------------|

REPEAT BRIDGE


2nd CHROUS:

Guitar 1:
   E             A             D             B
e------------------------------2-2-2-2-2-2-2-----------------|
b------------------------------3-3-3-3-3-3-3-----------------|
g----------------2-2-2-2-2-2-2-2-2-2-2-2-2-2-4-4-4-4-4-4-4---|
d--2-2-2-2-2-2-2-2-2-2-2-2-2-2-0-0-0-0-0-0-0-4-4-4-4-4-4-4---|
a--2-2-2-2-2-2-2-0-0-0-0-0-0-0---------------2-2-2-2-2-2-2---|
e--0-0-0-0-0-0-0---------------------------------------------|

Guitar 2:
e------------------------------14-14p12p10----10-10------------------------|
b------------------------------------------12-------12p10----10-10--10p7---|
g---------------------------------------------------------11-------------7-|
d--------------------------------------------------------------------------|
a--------------------------------------------------------------------------|
e--------------------------------------------------------------------------|

Guitar 1:
   E             A             D             B
e------------------------------2-2-2-2-2-2-2-----------------|
b------------------------------3-3-3-3-3-3-3-----------------|
g----------------2-2-2-2-2-2-2-2-2-2-2-2-2-2-4-4-4-4-4-4-4---|
d--2-2-2-2-2-2-2-2-2-2-2-2-2-2-0-0-0-0-0-0-0-4-4-4-4-4-4-4---|
a--2-2-2-2-2-2-2-0-0-0-0-0-0-0---------------2-2-2-2-2-2-2---|
e--0-0-0-0-0-0-0---------------------------------------------|

e------------------------------------------------------------|
b------------------------------------------------------------|
g------------------------------------------------------------|
d------------------------------------------------------------|
a------------------------------------------------------------|
e------------------------------------------------------------|


Guitar 1:
   E             A             D             B
e------------------------------2-2-2-2-2-2-2-----------------|
b------------------------------3-3-3-3-3-3-3-----------------|
g----------------2-2-2-2-2-2-2-2-2-2-2-2-2-2-4-4-4-4-4-4-4---|
d--2-2-2-2-2-2-2-2-2-2-2-2-2-2-0-0-0-0-0-0-0-4-4-4-4-4-4-4---|
a--2-2-2-2-2-2-2-0-0-0-0-0-0-0---------------2-2-2-2-2-2-2---|
e--0-0-0-0-0-0-0---------------------------------------------|

Guitar 2:
e------------------------------14^--14^--14^--------|
b---------------------------------------------------|
g---------------------------------------------*9*---|
d---------------------------------------------------|
a---------------------------------------------------|
e---------------------------------------------------|

Guitar 1:
   E             A                    F     A7
e-------------------------------------------5---|
b-------------------------------------------5---|
g------------------2------------------------6---|
d--2-2-2-2-2-2-2---2------------------3-----5---|
a--2-2-2-2-2-2-2-0-0------------------3-----7---|
e--0-0-0-0-0-0-0---------pickslide----1-----5---|


Guitar 2:
e-----------------------------------------------|
b-----------------------------------------------|
g-----------------------------------------------|
d-----------------------------------------------|
a-----------------------------------------------|
e-----------------------------------------------|


Guitar 1:
   E     A       D7M  
e----0------------5-----------------------------5----|
b----0------------7-----------------------------7----|
g----1---2-2------6-----------------------------6----|
d--2-2---2-2------7-----------------------------7----|
a--2-2---0-0------5-----------------------------5----|
e--0-0-----------------------------------------------|


e----------------------------------------------------|
b--------------------------------------10-8----------|
g-----------------------------9-7-9-10------6--------|
d----------------------7---10------------------------|
a------------------------8---------------------------|
e----------------------------------------------------|

And there yo have it. I aint gonna do the ending cos theres
not much point at all in doing that.
And if you wanna play this live with one guitar just use
your head and play the important bits. Just like Chris
does when he plays this song live.     
Добавлено: 24.07.2013
Другие материалы по этой песне:

Страница создана 31.03.2012
http://primanota.ru/the-living-end/i-get-a-kick-out-of-you-chords.htm
Привет, Гость.
Предлагаем пройти революционный курс по гитаре.
Подарок от PrimaNota.Ru, забирай!