PrimaNota.ru - самый крупный в мире бесплатный архив песенных текстов, аккордов, табулатур и нот


The Living End - Hey Hey Disbeliever - таба, видео

Регистрация Запомнить меня
Войти через:  Facebook Google Twitter Vk Yandex Mail.ru

The Living End - Hey Hey Disbeliever - таба, видео

Печатать
Просмотров: 111
Hey Hey Disbeliever - The Living End

tabbed by Matt Heal,

mattheal @ Gmail.com

for more tabs for the living end check out http://tletabs.webs.com/index.htm

intro: (clean)
e|--5-5--3-3--1-1--3-3--5-5--1-1--3-3--5-5--3-3--1-1-111111----|
b|--5-5--3-3--1-1--3-3--5-5--1-1--3-3--5-5--3-3--1-1-111111----|
g|--5-5--4-4--2-2--4-4--5-5--2-2--4-4--5-5--4-4--2-2-222222----|
d|--7-7--5-5--3-3--5-5--7-7--3-3--5-5--7-7--5-5--3-3-333333----|
a|--7-7--5-5--3-3--5-5--7-7--3-3--5-5--7-7--5-5--3-3-333333----|
E|--5-5--3-3--1-1--3-3--5-5--1-1--3-3--5-5--3-3--1-1-111111----|


Main Riff (Octave)
e|------------------------------------------------|
b|------------------------------------------------|
g|------------------------------------------------|
d|------------------------------------------------| x6
a|-0-0-0-3-0-0-0-0-0-3-0-0-0-0-0-6-0-0-5-0-0-3~---|
E|------------------------------------------------|

(I wish it didnt.....
e------------------------------|
B------------------------------|
G--------------------------2~--|
D--4444444444--333333333-------| x2
A------------------------------|
E------------------------------|

e|------------------------------------------------|
b|------------------------------------------------|
g|------------------------------------------------|
d|------------------------------------------------| x2
a|-0-0-0-3-0-0-0-0-0-3-0-0-0-0-0-6-0-0-5-0-0-3~---|
E|------------------------------------------------|

Chorus (clean) gtr1
e|--5-5--3-3--1-1--3-3--5-5--1-1-|
b|--5-5--3-3--1-1--3-3--5-5--1-1-|
g|--5-5--4-4--2-2--4-4--5-5--2-2-|x 2
d|--7-7--5-5--3-3--5-5--7-7--3-3-|
a|--7-7--5-5--3-3--5-5--7-7--3-3-|
E|--5-5--3-3--1-1--3-3--5-5--1-1-|

gtr2
e|-555-777-555-777-555-777-555-777-|
b|-555-555-555-555-555-555-555-555-|
g|---------------------------------| x2
d|---------------------------------|
a|---------------------------------|
E|---------------------------------|


Verse (octave)
e|------------------------------------------------|
b|------------------------------------------------|
g|------------------------------------------------|
d|------------------------------------------------| x6
a|-0-0-0-3-0-0-0-0-0-3-0-0-0-0-0-6-0-0-5-0-0-3~---|
E|------------------------------------------------|

(I wish it didnt.....
e------------------------------|
B------------------------------|
G-------------------------2~---|
D--4444444444--333333333-------| x2
A------------------------------|
E------------------------------|

e|------------------------------------------------|
b|------------------------------------------------|
g|------------------------------------------------|
d|------------------------------------------------| x2
a|-0-0-0-3-0-0-0-0-0-3-0-0-0-0-0-6-0-0-5-0-0-3~---|
E|------------------------------------------------|

Chorus

Chorus (clean) gtr1
e|--5-5--3-3--1-1--3-3--5-5--1-1-|
b|--5-5--3-3--1-1--3-3--5-5--1-1-|
g|--5-5--4-4--2-2--4-4--5-5--2-2-|x 2
d|--7-7--5-5--3-3--5-5--7-7--3-3-|
a|--7-7--5-5--3-3--5-5--7-7--3-3-|
E|--5-5--3-3--1-1--3-3--5-5--1-1-|

gtr2
e|-555-777-555-777-555-777-555-777-|
b|-555-555-555-555-555-555-555-555-|
g|---------------------------------| x2
d|---------------------------------|
a|---------------------------------|
E|---------------------------------|


e|----------1-1-1-1------------1-1-1-1--|
b|----------1-1-1-1------------1-1-1-1--|
g|----------2-2-2-2------------2-2-2-2--|
d|-2-2-2-2--3-3-3-3---2-2-2-2--3-3-3-3--|
a|-2-2-2-2--3-3-3-3---2-2-2-2--3-3-3-3--|
E|-0-0-0-0--1-1-1-1---0-0-0-0--1-1-1-1--|

Pre solo (octave)
Dont panic
e-----------------|
B-----------------|
G-----------------|
D-----------------| x3
A-----------------|
E-0-5-5-5-5-5-5-5-|

Solo (octave)
e|--------------------------------------------------------------|
b|--------------------------------------------------------------|
g|-------------------------------------------------------------|
d|-----------------------------------------10-12-10------------|
a|---------------------------------8h10/12----------12-10------|
E|--8h1010101010-8h1010101010-8h10-----------------------13-10-|

e|---------------------------------------------------------------|
b|---------------------------------------------------------------|
g|-----------------------------------------------------10--------|
d|-----------------------------------------10-12-10-------12-10--|
a|---------------------------------8h10/12----------12-----------|
E|--8h1010101010-8h1010101010-8h10-------------------------------|

e|------------------------------------------------------------------|
b|------------------------------------------------------------------|
g|---------------------------------------------------------14-12----|
d|---------------------------------------------12-14-12----------14-|
a|------------------------------------10h12s14----------14----------|
E|--10h1212121212-10h1212121212-10h12-------------------------------|

e|----------------------------------------------------------------------|
b|----------------------------------------------------------------------|
g|---------------------------------------12h14p12-----------------------|
d|---------------------------------12h14----------14p12-----------------|
a|------------------------10h12s14----------------------14p12s10--------|
E|--10h1212121212-10h1212----------------------------------------12p10--|

e--------------------------------------|
B--------------------------------------|
G--------------------------------------|
D--------------------------------------|
A-/888888-999999-1010101010-1111111111-|
E--------------------------------------|

e----------------|
B----------------|
G----------------|
D----------------|
A-121212-15-1212-|x3
E----------------|

verse  (octave)
e|-------------------------------------------------------|
b|-------------------------------------------------------|
g|-------------------------------------------------------|
d|----------------------------------13------12-----------| x6
a|-12-12-12-15-12-12-12-15-12-12-12---12-12---12-12-15~--|
E|-------------------------------------------------------|

(I wish it didnt.....
e------------------------------|
B------------------------------|
G------------------------------|
D--4444444444--333333333-------| x2
A-------------------------3~---|
E------------------------------|


Chorus (clean) gtr1
e|--5-5--3-3--1-1--3-3--5-5--1-1-|
b|--5-5--3-3--1-1--3-3--5-5--1-1-|
g|--5-5--4-4--2-2--4-4--5-5--2-2-|x 2
d|--7-7--5-5--3-3--5-5--7-7--3-3-|
a|--7-7--5-5--3-3--5-5--7-7--3-3-|
E|--5-5--3-3--1-1--3-3--5-5--1-1-|

gtr2
e|-555-777-555-777-555-777-555-777-|
b|-555-555-555-555-555-555-555-555-|
g|---------------------------------| x2
d|---------------------------------|
a|---------------------------------|
E|---------------------------------|

e|----------1-1-1-1------------1-1-1-1--|
b|----------1-1-1-1------------1-1-1-1--|
g|----------2-2-2-2------------2-2-2-2--|
d|-2-2-2-2--3-3-3-3---2-2-2-2--3-3-3-3--|
a|-2-2-2-2--3-3-3-3---2-2-2-2--3-3-3-3--|
E|-0-0-0-0--1-1-1-1---0-0-0-0--1-1-1-1--|

Outro (octave)
e|-------------------------------------------------------|
b|-------------------------------------------------------|
g|-------------------------------------------------------|
d|----------------------------------13------12-----------| x6
a|-12-12-12-15-12-12-12-15-12-12-12---12-12---12-12-15~--|
E|-------------------------------------------------------|

e|---------------------------------------------------------|
b|---------------------------------------------------------|
g|-------------------------------------------------------2-|
d|----------------------------------13------12-----------2-|
a|-12-12-12-15-12-12-12-15-12-12-12---12-12---12-12-15~--0-|
E|---------------------------------------------------------|



Добавлено: 07.04.2012
Другие материалы по этой песне:
  • Аккорды и текст

Страница создана 25.02.2012
http://primanota.ru/the-living-end/hey-hey-disbeliever-chords.htm
Привет, Гость.
Предлагаем пройти революционный курс по гитаре.
Подарок от PrimaNota.Ru, забирай!