PrimaNota.ru - самый крупный в мире бесплатный архив песенных текстов, аккордов, табулатур и нот


The Living End - Heatwave - таба, бас-таба, видео

Регистрация Запомнить меня
Войти через:  Facebook Google Twitter Vk Yandex Mail.ru

The Living End - Heatwave - таба, бас-таба, видео

Печатать
Просмотров: 68
HEATWAVE - TLE

Tabbed by: Matt Heal
email: mattheal @ Gmail.com

Legend:

v Bigsby warble
* Palm Mute
\\ fast alternate picking as you slide down

e|--------------|
b|--------------|
g|-2--2---3V----|
d|-2--2---3V----|
a|-0--0---1v----|
E|--------------|

Main Riff
e|-------------------------|
b|-------------------------|
g|-------------------------|
d|-------------------------|
a|---4---5---6---5-4p0-----|
E|-22--22--22--22------0---|


Pre-chorus
e|--------------------------|
b|--------------------------|
g|-----4-----5-----6-----5--|
d|-4-4-4-5-5-5-6-6-6-5-5-5--| last time through no palm mute
a|-2-2-2-2-2-2-2-2-2-2-2-2--|
E|--------------------------|
pm * *   * *   * *   * *

Chorus
e|-2-2-2-2--------------|
b|-2-2-2-2---7-7-7-7-7--|
g|-2-2-2-2---7-7-7-7-7--| as needed
d|-4-4-4-4---7-7-7-7-7--|
a|-4-4-4-4---5-5-5-5-5--|
E|-2-2-2-2--------------|

end with sharp single chords of D

Verse
e|-------------------------|
b|-------------------------|
g|-------------------------|
d|-------------------------|
a|---4---5---6---5-4p0-----|
E|-22--22--22--22------0---|

acoustic bit

palm muted light plays of

e|-2-2-2-2---|
b|-2-2-2-2---|
g|-2-2-2-2---| as needed
d|-4-4-4-4---|
a|-4-4-4-4---|
E|-2-2-2-2---|

then
    Once          Repeat this part
e|---------|-------------------------|
b|---------|-------------------------|
g|---------|-------------------------|
d|---------|-------------------------|
a|-4-2-0---|---4---5---6---5-4p0-----|
E|-------4-|-22--22--22--22------0---|


Pre-chorus
e|--------------------------|
b|--------------------------|
g|-----4-----5-----6-----5--|
d|-4-4-4-5-5-5-6-6-6-5-5-5--| last time through no palm mute
a|-2-2-2-2-2-2-2-2-2-2-2-2--|
E|--------------------------|
pm * *   * *   * *   * *

Chorus
e|-2-2-2-2--------------|
b|-2-2-2-2---7-7-7-7-7--|
g|-2-2-2-2---7-7-7-7-7--| as needed
d|-4-4-4-4---7-7-7-7-7--|
a|-4-4-4-4---5-5-5-5-5--|
E|-2-2-2-2--------------|

HEATWAVE!

e|--------------|
b|--------------|
g|-2--2---3V----|
d|-2--2---3V----|
a|-0--0---1v----|
E|--------------|

Solo Pt 1
e|----------------------------------|
b|----------------------------------|
g|--------------------------------9-|
d|-----11----12----13----12-11----9-|
a|--99----99----99----99------12--7-|
E|----------------------------------|
 

e|--------------------------------------------15V--------|
b|------------------------------------------------19\\0--|
g|-77-9-10~--99-10-12~--77-9-10~--99-10-12~--------------|
d|-------------------------------------------------------|
a|-------------------------------------------------------|
E|-------------------------------------------------------|

Verse 3

e|-2-x-x-x--------------------------|
b|-2-x-x-x--------------------------|
g|-2-x-x-x--------------------------|
d|-4-x-x-x--------------------------|
a|-4-x-x-x----4---5----6----5-4p0---|
E|-2-x-x-x--22--22--22---22-------0-|


Chorus
gtr 1
e|-2-2-2-2--------------|
b|-2-2-2-2---7-7-7-7-7--|
g|-2-2-2-2---7-7-7-7-7--| as needed
d|-4-4-4-4---7-7-7-7-7--|
a|-4-4-4-4---5-5-5-5-5--|
E|-2-2-2-2--------------|

gtr 2
e|-----------------|
b|-----------------|
g|-----------------|
d|-----------------|
a|-------00-2-5555-|
E|-22-44-----------|

Outro

e|----------------------------2--|
b|-7-x-x-x-x-x--7-x-x-x-x-x---2--|
g|-7-x-x-x-x-x--7-x-x-x-x-x---2--|
d|-7-x-x-x-x-x--7-x-x-x-x-x---4--|
a|-5-x-x-x-x-x--5-x-x-x-x-x---4--|
E|----------------------------2--|
Добавлено: 01.08.2013
Другие материалы по этой песне:

Страница создана 01.08.2013
http://primanota.ru/the-living-end/heatwave-chords.htm
Привет, Гость.
Предлагаем пройти революционный курс по гитаре.
Подарок от PrimaNota.Ru, забирай!