PrimaNota.ru - самый крупный в мире бесплатный архив песенных текстов, аккордов, табулатур и нот


The Living End - Gasoline - таба, видео

Регистрация Запомнить меня
Войти через:  Facebook Google Twitter Vk Yandex Mail.ru

The Living End - Gasoline - таба, видео

Печатать
Просмотров: 77
Gasoline - The Living End

Intro
e|------------------------|
b|------------------------|
g|------------------------|
d|------------------------| x 3
a|---------0--2-2-0-2-5---|
E|-0-0-2-3----------------|


Verse
e|---------------------------------------|
b|---------------------------------------|
g|--------------------7-9-----------7-0--|
d|--------------------7-9-x-x-x-x-x-7-2--| x2
a|---------0--2-2-0-2-5-7-x-x-x-x-x-5-2--|
E|-0-0-2-3----------------------------0--|

Chorus

e|-----------------------------------------------|
b|-----------------------------------------------|
g|-9-----7-----7-----7---------------------------|
d|-9-----7-----7-----7---------------------------| x2
a|-7-----5-----4-----5------------0--2-2-0-2-5---|
E|---0-0---0-0---0-0------0-0-2-3----------------|

e|---------------------------|
b|-----------------------2---|
g|-9-----7-----7-----7---2---|
d|-9-----7-----7-----7---2---|
a|-7-----5-----4-----5---4---|
E|---0-0---0-0---0-0---------|

e|------------------------|
b|------------------------|
g|------------------------|
d|------------------------| x 3
a|---------0--2-2-0-2-5---|
E|-0-0-2-3----------------|

Verse:
e|---------------------------------------|
b|---------------------------------------|
g|--------------------7-9-----------7-0--|
d|--------------------7-9-x-x-x-x-x-7-2--|
a|---------0--2-2-0-2-5-7-x-x-x-x-x-5-2--|
E|-0-0-2-3----------------------------0--|


Chorus
e|-----------------------------------------------|
b|-----------------------------------------------|
g|-9-----7-----7-----7---------------------------|
d|-9-----7-----7-----7---------------------------| x2
a|-7-----5-----4-----5------------0--2-2-0-2-5---|
E|---0-0---0-0---0-0------0-0-2-3----------------|

e|---------------------------|
b|-----------------------2---|
g|-9-----7-----7-----7---2---|
d|-9-----7-----7-----7---2---|
a|-7-----5-----4-----5---4---|
E|---0-0---0-0---0-0---------|

e|------------------------|
b|------------------------|
g|------------------------|
d|------------------------| x 3
a|---------0--2-2-0-2-5---|
E|-0-0-2-3----------------|


Slow break
Rhtyhm guitar
e|------------------------|
b|------------------------|
g|------------------------|
d|------------------------| x lots
a|---------0--2-2-0-2-5---|
E|-0-0-2-3----------------|

Lead

e|----------------|
b|-5--------------|
g|-7b9-9-9-9r7-4--|
d|----------------|
a|----------------|
E|----------------|

last time 
e|------|
b|-3----|
g|-5b7--|
d|------|
a|------|
E|------|

Normal Speed again
e|------------------------|
b|------------------------|
g|------------------------|
d|------------------------| x lots
a|---------0--2-2-0-2-5---|
E|-0-0-2-3----------------|


Chorus
e|-----------------------------------------------|
b|-----------------------------------------------|
g|-9-----7-----7-----7---------------------------|
d|-9-----7-----7-----7---------------------------| x2
a|-7-----5-----4-----5------------0--2-2-0-2-5---|
E|---0-0---0-0---0-0------0-0-2-3----------------|

e|---------------------------|
b|-----------------------2---|
g|-9-----7-----7-----7---2---|
d|-9-----7-----7-----7---2---|
a|-7-----5-----4-----5---4---|
E|---0-0---0-0---0-0---------|

e|------------------------|
b|------------------------|
g|------------------------|
d|------------------------| x 3
a|---------0--2-2-0-2-5---|
E|-0-0-2-3----------------|

End on Em
Добавлено: 13.10.2013
Другие материалы по этой песне:
  • Аккорды и текст

Страница создана 13.10.2013
http://primanota.ru/the-living-end/gasoline-chords.htm
Привет, Гость.
Предлагаем пройти революционный курс по гитаре.
Подарок от PrimaNota.Ru, забирай!