PrimaNota.ru - самый крупный в мире бесплатный архив песенных текстов, аккордов, табулатур и нот


The Living End - Fond Farewell - текст песни, таба, видео

Регистрация Запомнить меня
Войти через:  Facebook Google Twitter Vk Yandex Mail.ru

The Living End - Fond Farewell - текст песни, таба, видео

Печатать
Просмотров: 97
                             -----The Living End------
                              ----Fond Farewell-------First off, this is a totally sweet song that was... "left behind" so to speak..... It 
off the One Said To The Other Single and it has a great solo..... I havent got the ENTIRE 
few tiny things are missing but someone really needed to add this tab....

So here we Go....


Tabbed by: Mucho-mum
Email: mucho_mum@hotmail.com

Tuning: standard

Intro:

E-------------------------------------------------------------------|
B-------------------------------------------------------------------|
G--(SLIDE)---5-5---7-7----10----------------------------------------|
D--(SLIDE)---5-5---7-7----10-----(Let it ring)----------------------|
A--(SLIDE)---3-3---5-5----8-----------------------------------------|
E-------------------------------------------------------------------|


Verses 1 and 2

E-------------------------------------------------------------------|
B-------------------------------------------------------------------|
G--7-7--------7-7-------7-7------7-7-------7-7---------7--7---------|
D--7-7--------7-7-------7-7------7-7-------7-7---------7--7---------|
A--5-5--------5-5-------5-5------5-5-------5-5---------5--5---------|
E------3---4------3--4------3--4-----3--4---------3-4---------------|

Repeat that until....

E-------------------------------------------------------------------|
B-------------------------------------------------------------------|
G------------------------------------7-7------7-7-----7---4----9----|
D------------------------------------7-7------7-7-----7---4----9----|
A------------------------------------5-5------5-5-----5---2----7----|
E-3-3---1-2---3-3---1-2---3-3---1-2------3-4-----3-4----------------|


Chorus:

Guitar 1:

E-----------------------------------|And it does that throughout the chorus!
B--15^^(17)---15--13----15^(17)-----|
G-----------------------------------|
D-----------------------------------|
A-----------------------------------|
E-----------------------------------|


Guitar 2:

E----------------------------------------------------------|
B----------------------------------------------------------|
G--9-9-9-9-9---7-7-7-7-7---5-5-5-5-5---7-7-7-7-7-----------| Repeat until....
D--9-9-9-9-9---7-7-7-7-7---5-5-5-5-5---7-7-7-7-7-----------|
A--7-7-7-7-7---5-5-5-5-5---3-3-3-3-3---5-5-5-5-5-----------|
E----------------------------------------------------------|


E-----------------------------|
B-----------------------------|
G--5-5-5-5-5---7--10----------|
D--5-5-5-5-5---7--10----------|
A--3-3-3-3-3---5--8-----------|
E-----------------------------|


Then repeat the:

Verse

Chorus

Now the solo:
This is played realy, really fast with a slight "Wahh" effect....

E----------------------------------------------------------|
B----------------------------------------------------------|
G-----------------------------7-7-7-7-7-7-7-7-7-7-7-7-7-7--|
D----------------------------------------------------------|
A-5-5-5-5-5-5-5-5-5-5-5-5-5-5------------------------------|
E----------------------------------------------------------|

Then the part i cant work out.... (some kind of slides....)
Then there's a great big run like this....

E---15^--10-13p-10-----10---------------------------------------------------|
B-------------------13-----13p-10-------------------------------------------|
G---------------------------------12^p-12p-10---------10--------------------|
D---------------------------------------------12-10-12---12p-10-------------|
A----------------------------------------------------------------12p11p-10--|
E---------------------------------------------------------------------------|

E------------------------------------|
B------------------------------------|
G---------------10---12^-(13)-10-----|
D------------12-------------------12-|
A------------------------------------|
E--13p-10----------------------------|

Then back in the chorus where it ends on:

E-10--------|
B-10--------|
G-10--------|
D-10--------|
A-8---------|
E-----------|

Thanks guys! If u have any thoughts or suggestions...then please send me an email or comment thanks!

Tabbed by: mucho-mum
Date: May 26th 2007 5:51PM
Добавлено: 30.09.2013
Другие материалы по этой песне:
  • Аккорды и текст

Страница создана 17.06.2012
http://primanota.ru/the-living-end/fond-farewell-chords.htm
Привет, Гость.
Предлагаем пройти революционный курс по гитаре.
Подарок от PrimaNota.Ru, забирай!