PrimaNota.ru - самый крупный в мире бесплатный архив песенных текстов, аккордов, табулатур и нот


The Living End - E Boogie - таба, видео

Регистрация Запомнить меня
Войти через:  Facebook Google Twitter Vk Yandex Mail.ru

The Living End - E Boogie - таба, видео

Печатать
Просмотров: 73
                             E boogie

/= slide up
\= slide down
p= pull off
h= hammer on
pm= palm mute
b= half bend
^= full bend
^^= bend 2 frets
v= bring bend down
x= dead note


This here is an instrumental they only do live, so its not on any 
CD's yet. Its your typlical 12 bar blues, and it's in the key of E,
hence the name, lol. Also, I think the main riff was partly taken from a 
Stevie Ray Vaughn song called "Rude mood." Evertime they play this song, 
it differs a little bit. This is the version from the DVD, which was 
performed at 'Splendour in the Grass 2003." Very hard song to play. 



Intro:

e------7-0-4-0-7-0-4-0-7-0-4-0-7-0-4-0-9-0-5-0-9-0-5-0-9-0-5-0-9-0-5-0--|
b--5/-------------------------------------------------------------------|
g-----------------------------------------------------------------------|
d-----------------------------------------------------------------------|
a-----------------------------------------------------------------------|
e-----------------------------------------------------------------------|


e--7-0-4-0-7-0-4-0-7-0-4-0-7-0-4-0-11-0-7-0-11-0-7-0-11-0-7-0-11-0-7-0--|
b-----------------------------------------------------------------------|
g-----------------------------------------------------------------------|
d-----------------------------------------------------------------------|
a-----------------------------------------------------------------------|
e-----------------------------------------------------------------------|


e--12-0-7-0-12-0-7-0-12-0-7-0-12-0-7-0-9-0-5-0-9-0-5-0-9-0-5-0-9-0-5-0--|
b-----------------------------------------------------------------------|
g-----------------------------------------------------------------------|
d-----------------------------------------------------------------------|
a-----------------------------------------------------------------------|
e-----------------------------------------------------------------------|


e---0-0------------------------------------------------|
b--/5-3------------------------------------------------|
g-------3p2p0---2--------------------------------------|
d-------------2---2-4/5-2p0-----0--------------0-2-----|
a---------------------------2p1---2p1p0---0-/2---------|
e---------------------------------------3----------3b--|


(You gotta use pick and fingers for this bit)

e-------------------------------------------------------------------------------------|
b-------------------------------------------------------------------------------------|
g----1----2----3----4----5----7----8----9----2----4----5----6----7----9----10-----11--|
d-------------------------------------------------------------------------------------|
a-------------------------------------------------------------------------------------|
e--0----2----3----4----5----7----8----9----2----4----5----6----7----9---10-----12-----|
   pm...............................................................................


e-----12-----11-----10-----9-----8-----7-----6-----5-----3--|
b----x------x------x------x-----x-----x------x----x-----x---|
g---x------x------x------x-----x-----x------x----x-----x----|
d--x------x------x------x-----x-----x------x----x-----x-----|
a-----------------------------------------------------------|
e-----------------------------------------------------------|


e--3p2p0-------3p2p0-------3p2p0----------------------------------------------------|
b--------3p2p0-------3p2p0-------3p2p0-------3p2p0----------------------------------|
g--------------------------------------3p2p0-------3p2p0-------4p2p0----------------|
d--------------------------------------------------------3p2p0-------3p2p0----------|
a--------------------------------------------------------------------------2p0------|
e------------------------------------------------------------------------------2b~--|




Main Riff: Picking is very fast

e--------------------------------------------------------------------------|
b--------------------------------------------------------------------------|
g--------------------------------------------------------------------------|
d---------------------------------------------------------2-2-0-0----------|
a---------2-2-4-4-2-2---------2-2-4-4-2-2---------2-2-4-4---------4-4-2-2--|
e-0-0-2/4-------------0-0-2/4-------------0-0-2/4--------------------------|


e---------------------------------------------------------------------|
b---------------------------------------------------------------------|
g---------------------------------------------------------------------|
d-----------2-2-4p2----------2-2-4p2-----------------2-2-0-0----------|
a--0-0-/4-4---------0-0-/4-4------------------2-2-4-4--------4-4-2-2--|
e------------------------------------0-0-/4-4-------------------------|


e------------------------------------------------------2----|
b------------------------------------------------------0----|
g------------------------------------------------------2----|
d------------------------------------------------------1----| 
a------------------------------------------0-0-1-1-2-2-2----| 
e--2-2-4-4-5-5-6-6-7-7-5-5-4-4-2-2-0-0-4-4------------------|


e--------------------------------------------------------------------------|
b--------------------------------------------------------------------------|
g--------------------------------------------------------------------------|
d---------------------------------------------------------2--0-0-----------|
a---------2-2-4-4-2-2---------2-2-4-4-2-2---------2-2-4-4---------4-4-2-2--|
e-0-0-2/4-------------0-0-2/4-------------0-0-2/4--------------------------|


e---------------------------------------------------------------------|
b---------------------------------------------------------------------|
g---------------------------------------------------------------------|
d-----------2-2-4p2----------2-2-4p2-----------------2-2-0-0----------|
a--0-0-/4-4---------0-0-/4-4------------------2-2-4-4--------4-4-2-2--|
e------------------------------------0-0-/4-4-------------------------|


e---------------------------------------------------------------------|
b---------------------------------------------------------------------|
g----------------------------------------------------------------8----|
d--------------------------------------------------------------9-9----| 
a-------------------------------------------------------------9--9----| 
e--2-2-4-4-5-5-6-6-7-7-9-9-10-10-11-11-12-12-10-10-9-9-7-7p0-7---7----|




Solo:

e--0-0-0-0-0-0-0-0-7-7-7-7-7-7-7-7-12-12-12-12-12-12-12-12-15b----|
b-/5-5-5-5-5-5-5-5-8-8-8-8-8-8-8-8-12-12-12-12-12-12-12-12-15b----|
g-----------------------------------------------------------------|
d-----------------------------------------------------------------|
a-----------------------------------------------------------------|
e-----------------------------------------------------------------|


e-12-15b-12-15b-12-15b-12-15b-12-15b-12-15b----/12-15p12-14-14^v-12-------15p12-14-14^v-12----12-12-12----12\-|
b-12-15b-12-15b-12-15b-12-15b-12-15b-12-15b-12----------------------14p12------------------14-12-12-12----12\-|
g------------------------------------------------------------------------------------------------------14-12\-|
d-------------------------------------------------------------------------------------------------------------|
a-------------------------------------------------------------------------------------------------------------|
e-------------------------------------------------------------------------------------------------------------|


e---------12--9---------12-----12---------------------------------------------------------------|
b-12------12----12--9~------10-12-12-/12----12----------12---------12----------12---------------|
g------9--------------------------13-/13----12h13-------12h13------12h13-------12h13--------12--|
d----------------------------------------12-------12----------12---------12----------12-----13--|
a----------------------------------------------------12----------12---------12----------12------|
e-----------------------------------------------------------------------------------------------|


e---------------------------------------------------------------------------------|
b--14p12----12-------14p12----12-------14p12----12-------14p12----12--------------|
g--14p12----12p13----14p12----12p13----14p12----12p13----14p12----12p13p12-14\----|
d--------14-------14-------14-------14-------14-------14-------14----------14\----|
a--------------------------------------------------------------------------14\----|
e---------------------------------------------------------------------------------|




Chords during Bass Solo:

e--0--------0-----------------0------------------0----|
b--0--------0--------2--------0--------4----2----0----|
g--1--------1--------2--------1--------4----2----1----|
d--2--------2--------2--------2--------4----2----2----|
a--2--------2--------0--------2--------2----0----2----|
e--0--------0-----------------0------------------0----|



For the next part, take a beer bottle, and slide it up and down
the fretboard real fast! It's heaps of fun!!



Post beer bottle slide:

e------0--0--0--0-0-0-----------------0-0--0--0-0------------------------------------0--0----|
b------0--0--0--0-0-0-----------------0-0--0--0-0------------------------------------0--0----|
g--9---1--1--1--1-1-1--2-2--2--2-2-2--1-1--1--1-1------------------------------------1--1----|
d--9---2--2--2--2-2-2--2-2--2--2-2-2--2-2--2--2-2----------------------------------2-2--2----|
a--7---2--2--2--2-2-2--0-0--0--0-0-0--2-2--2--2-2--2-2-4-4-6-6-7-7-9-9-7-7-6-6-4-4-2-2--2----|
e--0-0-0--0--0--0-0-0-----------------0-0--0--0-0--0-0-2-2-4-4-5-5-7-7-5-5-4-4-2-2-0-0--0----|
                                                   pm.............................



Outro:

e-------------------------------------------------------------------|
b-------------------------------------------------------------------|
g-------------------------------------------------------------------|
d--5-5-5-5-5-5-5-5-6-6-6-6-6-6-6-6-7-7-7-7-7-7-7-7-7-7-7-7-7-7-7-7--|
a--7-7-7-7-7-7-7-7-5-5-5-5-5-5-5-5-4-4-4-4-4-4-4-4-3-3-3-3-3-3-3-3--|
e-------------------------------------------------------------------|
   pm.............................................................


e--7p0-6p0-5---------------------------------------------|
b------------7h8-----------------------------------------|
g----------------9-----------4---------------------------|
d------------------7-5/6---------5/6------------5b--2----|
a------------------------7p5---7-----7p5-\2p0-x-5b--2----|
e---------------------------------------------x-3b--0----|


Tabbed by Jason Zarpellon
jason_zarps@hotmail.com
www.thelivingendtabpage.cjb.net









Добавлено: 15.08.2013
Другие материалы по этой песне:
  • Аккорды и текст

Страница создана 15.08.2013
http://primanota.ru/the-living-end/e-boogie-chords.htm
Привет, Гость.
Предлагаем пройти революционный курс по гитаре.
Подарок от PrimaNota.Ru, забирай!