PrimaNota.ru - самый крупный в мире бесплатный архив песенных текстов, аккордов, табулатур и нот


The Living End - Closing In - аккорды и текст, таба, видео

Регистрация Запомнить меня
Войти через:  Facebook Google Twitter Vk Yandex Mail.ru

The Living End - Closing In - аккорды и текст, таба, видео

Печатать
Просмотров: 144
Авторы: Chris Cheney

Closing In
The Living End
                      - THE LIVING END -
                          Closing In
                    Tabbed by Michael Fryar 
                     manumick20@yahoo.com

s= slide
^=bend
p=pull-off
x=dead note
~=vibado

Ok well here ya all go, Ive finally worked out the
full version of Closing In (after about 2 months!)
This has to be the hardest Living End song there 
is so dont think you can play it first go!
Enjoy!,Michael.
Also Ive put everything in little sections so 
learn each section at a time.


 
e-------:---------:----------:----------:|
b-------:---------:----------:----------:|
g---7p6-:----10p9-:----13p12-:----16p15-:|
d-9-----:-12------:-15-------:-18-------:|
a-------:---------:----------:----------:|
e-------:---------:----------:----------:|


e-----------------:|
b-----------------:|
g-------------12~-:|
d-12-14-15-12-----:|
a-----------------:|
e-----------------:|


e---------------------------------8-7----:|
b------------------------------10-----9~-:|
g------------------10p9-9-10-------------:|
d----------10s9-12-----------------------:|
a-------12-------------------------------:|
e-10-13----------------------------------:|

e---------------------------------8-7--:|
b------------------------------10------:|
g------------------10p9---9-10---------:|
d----------10s9-12---------------------:|
a-------12-----------------------------:|
e-10-13--------------------------------:

e-------------------------------------:|
b-------------------------------------:|
g----------------------------10-12-14-:|
d-------------------10-12-14----------:|
a----------10-12-13-------------------:|
e-10-12-13----------------------------:|

    
e----------12-13-15-17-|
b-11-13-15-------------|
g----------------------|
d----------------------|
a----------------------|
e----------------------|


e*-----------------------------------|
b*-----------------------------------|
g*-----7-7--------7-7-9-9-9h10p9-9-7-|
d*--------8-8-7-7--------------------|
a*-5-5-------------------------------|
e*-----------------------------------|

e------------------------10-:---------------------s:|
b-------------------7h10----:---------------------s:|
g-----7-7-------7h8---------:--------7------------s:|
d---------8-8-7-------------:----7-8---10-7-7h8p7-s:|
a-5-5-----------------------:-10------------------s:|
e---------------------------:---------------------s:|

e----------------------------5-:
b-----------------9----------5-:
g------7----10-8-10-8-10---7-6-:
d------7----8--8----7-8----7-5-:
a-10-9-5-----------------0---7-:
e----------------------------5-:* Play from * to * again.

    
e--------------------------------------------------:|
b--------------------------------------------------:|
g-7-7-7-7-7-7-7-7-9-9-9-9-9-9-9-9-1010101010101010-:|
d-7-7-7-7-7-7-7-7-9-9-9-9-9-9-9-9-1010101010101010-:|
a-5-5-5-5-5-5-5-5-7-7-7-7-7-7-7-7-8-8-8-8-8-8-8-8--:|
e--------------------------------------------------:|


e-------------------------------:|
b-------------------------------:|
g--77777-88888-99999-1010101010-:|
d--77777-88888-99999-1010101010-:|
a--55555-66666-77777--8-8-8-8-8-:|
e-------------------------------:|
 
e--------------------------------------:|
b----------5-6-8-5--5------------------:|
g-3-5-3-2--5----------7-5s4-5-4--------:|
d-3--------5--------------------7h5-7^-:|
a--------------------------------------:|
e--------------------------------------:|


e----------------------------------------:|
b----------5-6-8-6-5---------------------:|
g-3-5-3-2--5----------5-4-5-7--8-7-8--10-:|
d-3--------5----------7-6-7-9-10-9-10-12-:|
a----------------------------------------:|
e----------------------------------------:|
 
e------------------------------------------:|
b----------------------------------8h10h11-:|
g-7-------------------9p7p5-7h9h10---------:|
d---10-8-7---------------------------------:|
a----------10-8-7--------------------------:|
e-----------------10-----------------------:|


e---------------------------:-------------------------------:|
b------------------11h13h14-:-------------------14h16h17-15-:|
g-12p10p8-10h12h13----------:-15p13p11-13h15h16-------------:|
d---------------------------:-------------------------------:|
a---------------------------:-------------------------------:|
e---------------------------:-------------------------------:|


  (repeat this section 3 times ok)
e----------------------:--------------------:|
b----------------------:--------------------:|
g----------------------:--------------------:|
d----------12----------:---------11---------:|
a-10-13-12----10-13-12-:-9-12-11----9-12-11-:|
e----------------------:--------------------:|

e----------------------:----------------------:|
b----------------------:----------------------:|
g----------------------:----------14-12-------:|
d----------14----------:-------15-------14----:|
a-12-15-14----12-15-14-:-13-16-------------13-:|
e----------------------:----------------------:|

 
e----------------------:--------------------:|
b----------------------:--------------------:|
g----------------------:--------------------:|
d----------12----------:---------11---------:|
a-10-13-12----10-13-12-:-9-12-11----9-12-11-:|
e----------------------:--------------------:|


e---------------------:--------------------------------:|
b---------------------:--------------------------------:|
g---------------------:----------14-12--------------14-:|
d---------14----------:-------15-------14----12-15-----:|
a-12-15-14---12-15-14-:-13-16-------------13-----------:|
e---------------------:--------------------------------:|

 
e-8p5--------11p8---------:-14p11-----------17p14----------:|
b-----7-----------10------:-------13--------------16-------:|
g-------8-5----------11-8-:----------14-11-----------17-14-:|
d-------------------------:--------------------------------:|
a-------------------------:--------------------------------:|
e-------------------------:--------------------------------:|
  
 This is where it goes into that fast Top Gun type solo :)
e-------------------------------|
b-12--13------------------------|
g-12~----12b14-12p10----10------|
d--------------------12----12-12|
a-------------------------------|
e-------------------------------|


e-------------------------------:|
b-------------------------------:|
g-------------------------------:|
d-10-10h12p10----10-------------:|
a-------------12----s-10-8----8-:|
e--------------------------10---:|
 
e-------------------------------------------------|
b-------------------------------------------------|
g----------------------------10h12p10----10-12-10-|
d-----10-12p10----10--s12-12----------12----------|
a-s12----------12---------------------------------|
e-------------------------------------------------|


e----------------------------------------:|
b----------------------------------------:|
g-s13-13-s-12h13p12----12----------------:|
d------------------15----15-12---12-12~~-:|
a-----------------------------15---------:|
e----------------------------------------:|
 
e--------------------------------------------------------:|
b-10-----------------------------------------------------:|
g-10-----------------------------------------------------:|
d----12-------10-12-12^13-12-12p10----10-----------------:|
a-------12-12----------------------12----12-10s8-------8-:|
e------------------------------------------------10-10---:|


e-s17-13----------------:|
b--------15-------------:|
g-----------14-13-~~13--:|
d-----------------------:|
a-----------------------:|
e-----------------------:|
 
e--------------------------------------------------------|
b--------------------------------------------------------|
g-15p14p12----------14p12p10----------12p10p9-10p9-------|
d----------15p14p12----------14p12p10--------------10-12~|
a--------------------------------------------------------|
e--------------------------------------------------------|
 
e----------------------------------------------:|
b----------------------------------------------:|
g-10---12p10----10-10-10^-13p10----10-10-10~---:|
d------------12-----------------12-------------:|
a----------------------------------------------:|
e----------------------------------------------:|


e----------------------------------------------|
b----------------------------------------------|
g-14p10----10-10-10~-----10-12p-10----10-12s14-|
d-------12------------12-----------12----------|
a----------------------------------------------|
e----------------------------------------------|


e----------------:|
b-13-------------:|
g----14s12-10----:|
d-------------12-:|
a----------------:|
e----------------:|

e----13-----15^-15^-15^17-15p13------:|
b-15----15----------------------15-15:|
g------------------------------------:|
d------------------------------------:|
a------------------------------------:|
e------------------------------------:|


e-----15-----15-----15-:-----15-------------------:|
b-15b----15b----15b----:-15^----15^17-15p13-15-13-:|
g----------------------:--------------------------:|
d----------------------:--------------------------:|
a----------------------:--------------------------:|
e----------------------:--------------------------:|
 
e-13-13-15^-15^17-15p13----13-------13-15p13s12-13p12s10s:|
b-----------------------15----15-15----------------------:|
g--------------------------------------------------------:|
d--------------------------------------------------------:|
a--------------------------------------------------------:|
e--------------------------------------------------------:|

e-12p10----10-----------------------:|
b-------13----13-11-13p11s10----10s-:|
g----------------------------12-----:|
d-----------------------------------:|
a-----------------------------------:|
e-----------------------------------:| 


  (play this section twice)(from * to *)
*
e--------------------11-10-:---------------------:-|
b---------------7h10-------:---------------------:-|
g-7-7-------7h8------------:--------7------------:-|
d-----8-8-7----------------:----7-8---10-7-7h8p7-:-|
a--------------------------:-10------------------:-|
e--------------------------:---------------------:-|


e--------------------11-10-:---------------------:|
b---------------7h10-------:---------------------:|
g-7-7-------7h8------------:--------7------------:|
d-----8-8-7----------------:----7-8---10-7-7h8p7-:|
a--------------------------:-10------------------:|
e--------------------------:---------------------:|
                                
e---------------------------5-:-|*
b----------------9----------5-:-|
g---------10--8-10-8-10---7-6-:-|
d------7--8---8----7--8---7-5-:-|
a-10-9-5----------------0---7-:-|
e---------------------------5-:-|

 
e-5--------------------------------:|
b-5------------6-------------------:|
g-6------------6-------------------:|
d-5-(strum)----7-(strum as needed)-:|
a-7------------8-------------------:|
e-5--------------------------------:|

e-5-------------------------------------------:|
b-6-12~--13-----------------------------------:|
g-7-------12~-10-12-10------------------------:|
d-7--------------------12-10h12p10------------:|
a-5--------------------------------12-12s10-8-:|
e---------------------------------------------:|
 

e---------------------------------------------13-15-15^-15^-15^|
b------------------------------------10-13-15------------------|
g---------------------------10-12-13---------------------------|
d---------10h12p10----10-12------------------------------------|
a-8-10s12----------12------------------------------------------|
e--------------------------------------------------------------|

            Dm
          e-5--:|
          b-6--:|
Finish on g-7--:|
          d-7--:|
          a-5--:|
          e----:| Tabbed by Michael Fryar-manumick20@yahoo.com
                  ICQ: 67053832.
Добавлено: 10.07.2012
Другие материалы по этой песне:

Страница создана 23.02.2012
http://primanota.ru/the-living-end/closing-in-chords.htm
Привет, Гость.
Предлагаем пройти революционный курс по гитаре.
Подарок от PrimaNota.Ru, забирай!