PrimaNota.ru - самый крупный в мире бесплатный архив песенных текстов, аккордов, табулатур и нот


The Living End - Carry Me Home - аккорды и текст, таба, бас-таба, видео

Регистрация Запомнить меня
Войти через:  Facebook Google Twitter Vk Yandex Mail.ru

The Living End - Carry Me Home - аккорды и текст, таба, бас-таба, видео

Печатать
Просмотров: 116
Carry Me Home
The Living End
                      -THE LIVING END-
                       Carry Me Home

                   Tabbed by Mick Fryar
                   manumick20@yahoo.com

Drop D Tune:

e-|
b-|
g-|
d-|
a-|
D-|

p=pull off
h=hammer on
~bend
A.H=art.hammer on
dp=dont play note,just rest your finger on that note

Sorry But some bits may be hard to read because
I had to make this tab Printer Friendly.



Intro:

e---------------------------------|
b---------------------------------|
g---------------------------------|
d---------0-3p0---0--5h6p5p3-5-3--|
a--3-0--3-------3-----------------|
D--3-0----------------------------|


e-------------------------------------------|
b-------------------------------------------|
g-------------------------------------------|
d---0-3-----0-3p0-----3p0-----3p0-----0-----|
a-3-----0h3-------3p0-----3p0-----3p0-------|
D-------------------------------------------|
Repeat that together 3 times.

                                                          
e--------------------------------------|
b--------------------------------------|
g--------------------------------------|
d----0-3p0---0-5p0-0--6p0-0--5p0-0--3--|
a--3-------3---------------------------|
D--------------------------------------|


                      C D
e--------------------------------|
b--------------------------------|
g--------------------------------|
d--3p0-5p0--3s5s3--x--5-7--------|(x8 this 1 section)
a-----------3s5s3--x--3-5--------|
D--------------------------------|
                      
 
Start Of Verse:

  D                                           C D
e----------------------------------------------------|
b----------------------------------------------------|
g-7-7-7-7-7-7-7-7-7-7-7-7-7--------------------------|
d-7-7-7-7-7-7-7-7-7-7-7-7-7-3p0-5p0-3s5s3--x-5-7-(x4)|
a-5-5-5-5-5-5-5-5-5-5-5-5-5---------3s5s3--x-3-5-----|
D----------------------------------------------------|
 / p a l m    m u t e d....

     G               E             
e------------------------------|
b------------------------------|
g------------------------------|
d------------------------------|
a--5-5-5-5-5-5-5-2-2-2-2-2-2-2-|
D--5-5-5-5-5-5-5-2-2-2-2-2-2-2-|
  / p a l m   m u t e d.......

  B
e-----------------------------------------|
b-----------------------------------------|
g-4-4-4-4-4-4-4-4-4-4-4-4-4-4-4-4---------|
d-4-4-4-4-4-4-4-4-4-4-4-4-4-4-4-4-(x2 last 2 rows)
a-2-2-2-2-2-2-2-2-2-2-2-2-2-2-2-2---------|
D-----------------------------------------|
  ...............................

   A
e------------------------|
b------------------------|
g--2-2-2-2-2-2-2-2-2-2-2-|
d--2-2-2-2-2-2-2-2-2-2-2-|
a--0-0-0-0-0-0-0-0-0-0-0-|
D------------------------|


   D                                         C D
e----------------------------------------------------|
b----------------------------------------------------|
g-7-7-7-7-7-7-7-7-7-7-7-7-7------------------5-5-----|
d-7-7-7-7-7-7-7-7-7-7-7-7-7-3p0-5p0-3s5s3--x-5-7-(x2)|
a-5-5-5-5-5-5-5-5-5-5-5-5-5---------3s5s3--x-3-5-----|
D----------------------------------------------------|
 / p a l m   m u t e d.....

     D
e------------------------------|
b------------------------------|
g--7-7-7-7-7-7-7-7-7-7-7-7-7---|
d--7-7-7-7-7-7-7-7-7-7-7-7-7---|
a--5-5-5-5-5-5-5-5-5-5-5-5-5---|
D------------------------------|
  / p a l m   m u t e d.....


e-------10-------------------------------------|
b----------13-12-10-12-10----------------------|
g--10-11-------------------12-11-10----10------|
d----------------------------------12----12-10-|
a----------------------------------------------|
D----------------------------------------------|


  D                                           C D
e-----------------------------------------------------|
b-----------------------------------------------------|
g-7-7-7-7-7-7-7-7-7-7-7-7-7---------------------------|
d-7-7-7-7-7-7-7-7-7-7-7-7-7--3p0-5p0-3s5s3--x-5-7-----|
a-5-5-5-5-5-5-5-5-5-5-5-5-5----------3s5s3--x-3-5-----|
D-----------------------------------------------------|
 / p a l m   m u t e d.....

   D#    F  D   D#    F  D   D#    F  D  A
e-----------------------------------------------------|
b-----------------------------------------------------|
g----------------------------------------2-2-2-2-2--2-|
d----------------------------------------2-2-2-2-2--2-|
a-1-1-1--3--0--1-1-1--3--0--1-1-1--3--0--0-0-0-0-0--0-|
D-1-1-1--3--0--1-1-1--3--0--1-1-1--3--0---------------|

    D  F   G                       G#G F G              
e------------------------------------------------|
b------------------------------------------------|
g------------------------------------------------|
d------------------------------------------------|
a--0-0-3-0-5--0-0-3-0-5--0-0-3-0-5-6-5-3-5-------|
D--0-0-3-0-5--0-0-3-0-5--0-0-3-0-5-6-5-3-5-(x2)--|

  G   A# C                    Db C A# C
e---------------------------------------|
b---------------------------------------|
g---------------------------------------|
d---------------------------------------|
a-5-5-8-10-5-5-8-10-5-5-8-10-11-10-8-10-|
D-5-5-8-10-5-5-8-10-5-5-8-10-11-10-8-10-|


e------------------------------------------|
b------------------------------------------|
g------------------------------------------|
d------------------------------------------|
a--0-0-3-0-5--0-0-3-0-5--0-0-3-0-5-6-5-3-5-|
D--0-0-3-0-5--0-0-3-0-5--0-0-3-0-5-6-5-3-5-|

   A   A#  A                            
e------------------------------------|
b------------------------------------|
g--2-2-3-3-2--2-0-2-3-2--------------|
d--2-2-2-2-2--2-0-2-3---2 (A.H)-(x4)-|
a--0-0-1-1-0-------------------------|
D------------------------------------|

  C#
e---------------------------------------|
b------------------------------------5^-|
g-6-6-6-6-6--8-7-5-7-5-7-5--------------|
d-6-6-6-6-6--8-7-5-7-5-7-5--------------|
a-4-4-4-4-4--------------3--7-5-3-0-----|
D---------------------------7-5-3-0-----|


  D                                           C D
e----------------------------------------------------|
b----------------------------------------------------|
g-7-7-7-7-7-7-7-7-7-7-7-7-7--------------------------|
d-7-7-7-7-7-7-7-7-7-7-7-7-7-3p0-5p0-3s5s3--x-5-7-(x2)|
a-5-5-5-5-5-5-5-5-5-5-5-5-5---------3s5s3--x-3-5-----|
D----------------------------------------------------|
 / p a l m   m u t e d.....

   D
e----------------------------0--0--0--|
b----------------------------3^-3--3^-|
g--7-7-7-7-7-7-7-7-7-7-7-7-7----------|
d--7-7-7-7-7-7-7-7-7-7-7-7-7----------|
a--5-5-5-5-5-5-5-5-5-5-5-5-5----------|
D-------------------------------------|
  / p a l m   m u t e d.....


   D                                           
e--------------------------------------------|
b--------------------------------------------|
g--7-7-7-7-7-7-7-7-7-7-7-7-7-----------------|
d--7-7-7-7-7-7-7-7-7-7-7-7-7--3p0-5p0-3p0-0--|
a--5-5-5-5-5-5-5-5-5-5-5-5-5-----------------|
D--------------------------------------------|
  / p a l m   m u t e d.....


   D#    F  D            A
e-----------------------------------------------------|
b-----------------------------------------------------|
g----------------------------------------2-2-2-2-2--2-|
d----------------------------------------2-2-2-2-2--2-|
a-1-1-1--3--0--1-1-1--3--0--1-1-1--3--0--0-0-0-0-0--0-|
D-1-1-1--3--0--1-1-1--3--0--1-1-1--3--0---------------|


Solo: Just before the solo all these weird effects are played 
      with the amp and shit or maybe they are harmonics
      that I can't work out!

e--------------------------------------------------|
b--6p4----6p4---6-6p4---6-6p4---6-6p4---6-6p4---6--|
g-------5-----5-------5-------5-------5-------5----|
d--------------------------------------------------|
a--------------------------------------------------|
D--------------------------------------------------|


e----------------------------------|
b--4-5-6-7-8-9-10--8-9-10-7-8-9-10-|
g--3-4-5-6-7-8-9---7-8-9--6-7-8-9--|
d----------------------------------|
a----------------------------------|
D----------------------------------|


e--------------9-10-11-12-14s14--|
b-----10-12-13------------14s14--|
g--11----------------------------|
d--------------------------------|
a--------------------------------|
D--------------------------------|


e--4----4----4----4----4----4----4-|
b----6^---6^---6^---6^---6^---6^---|
g----6^----------------------------|
d----------------------------------|
a----------------------------------|
D----------------------------------|


e----6----6----6----6-6-------------------------|
b-8^---8^---8^---8^-----9-8-6-------------------|
g-----------------------------8-7-6-------------|
d-----------------------------------8-7-6-------|
a-----------------------------------------8-7-6-|
D-----------------------------------------------|Solo Ends


   G  E  B  G  E  B  A
e------------------------|
b------------------------|
g--------4--------4--2---|
d--------4--------4--2---|
a--5--2--2--5--2--2--0---|
D--5--2-----5--2---------|

 Harmonic Slide (KEEP YOUR FINGER ON THAT a-5- NOTE
 THE WHOLE TIME OR THE HARMONICS WONT COME OUT RIGHT!

e---------------------------------|
b---------------------------------|
g---------------------------------|
d---------------------------------|
a-5dp-(9-9)-(8-8)-(7-7)-(8-8)-(9)-|
e---------------------------------|


    D  F   G                       G#G F G      
e-----------------------------------------------|
b-----------------------------------------------|
g-----------------------------------------------|
d-----------------------------------------------|
a--0-0-3-0-5--0-0-3-0-5--0-0-3-0-5-6-5-3-5------|
D--0-0-3-0-5--0-0-3-0-5--0-0-3-0-5-6-5-3-5-(x2)-|


  G   A# C                    Db C A# C
e---------------------------------------|
b---------------------------------------|
g---------------------------------------|
d---------------------------------------|
a-5-5-8-10-5-5-8-10-5-5-8-10-11-10-8-10-|
D-5-5-8-10-5-5-8-10-5-5-8-10-11-10-8-10-|

e------------------------------------------|
b------------------------------------------|
g------------------------------------------|
d------------------------------------------|
a--0-0-3-0-5--0-0-3-0-5--0-0-3-0-5-6-5-3-5-|
D--0-0-3-0-5--0-0-3-0-5--0-0-3-0-5-6-5-3-5-|



e----------------------------------------------|
b----------------------------------------------|
g--2-2-3-3-2--2-0-3-3-2-------------6-6-6-6-6--|
d--2-2-2-2-2--2-0-2-3---2(A.H)-(x4)-6-6-6-6-6--|
a--0-0-1-1-0------------------------4-4-4-4-4--|
D----------------------------------------------|

                                              D
e---------------------------------------------2-|
b---------------------------------------------3-|
g--8-7-5-7-5-7-5----------5-------3-1---1-----2-|
d--8-7-5-7-5-7-5------------4---------2---2-0-0-|
a--------------3--7-5-3-0-----3-1---------------|
D-----------------7-5-3-0-----------------------|

Tabbed By Michael Fryar
manumick20@yahoo.com
ICQ-67053832
Добавлено: 22.02.2012
Другие материалы по этой песне:
  • Аккорды и текст

Страница создана 22.02.2012
http://primanota.ru/the-living-end/carry-me-home-chords.htm
Привет, Гость.
Предлагаем пройти революционный курс по гитаре.
Подарок от PrimaNota.Ru, забирай!