PrimaNota.ru - самый крупный в мире бесплатный архив песенных текстов, аккордов, табулатур и нот


The Living End - Bringin' It All Back Home - текст песни, таба, видео

Регистрация Запомнить меня
Войти через:  Facebook Google Twitter Vk Yandex Mail.ru

The Living End - Bringin' It All Back Home - текст песни, таба, видео

Печатать
Просмотров: 83
Bringin' It All Back Home


/= slide up
\= slide down
p= pull off
h= hammer on
pm= palm mute
b= half bend
^= bend one fret
^^= bend 2 frets
v= release bend
~~= whammy bar


Intro/Verse:

e--------------------------------------------|
b--------------------------------------------|
g----5-------5--5---5----5-------5--5---5----|
d---5---5--5-5--5-5-5--5-5--5--5-5--5-5-5----|
a--3----3--3-3--3-3-3--3-3--3--3-3--3-3-3----|
e-----------------------------------------3--|

e--------------------------------------------|
b--------------------------------------------|
g----5-------5--5---5----5-------5--5---5----|
d---5---5--5-5--5-5-5--5-5--5--5-5--5-5-5----|
a--3----3--3-3--3-3-3--3-3--3--3-3--3-3-3----|
e-----------------------------------------3--|
"You wanna leave, no it isn't right"

e---------------------------------------|
b---------------------------------------|
g----5-------5-------------2--2---------|
d---5---5--5-5--5--3--3--3-3--3--3-3----|
a--3----3--3-3--5--3--3--3-3--3--3-3----|
e---------------3--1--1--1-1--1--1-1----|
"But it's up to you, 
the decision's not mine"

e-----------------5--5--5-5--7-7-7--7--7---1--3-------------------------|
b-----------------5--5--5-5--8-8-8--8--8---1--3-------------------------|
g--4--4--4-4-4-4--5--5--5-5--9-9-9--9--9---2--4----5-------5--5---5-----|
d--5--5--5-5-5-5--7--7--7-7--9-9-9--9--9---3--5---5---5--5-5--5-5-5-----|
a--5--5--5-5-5-5--7--7--7-7--7-7-7--7--7---3--5--3----3--3-3--3-3-3-----|
e--3--3--3-3-4-4--5--5--5-5--0-0-0--0--0-0-1--3----------------------3--|
"If I ever imagined you leaving my side,
I'd die" 


Repeat Verse, more open chords this time

Pre Chorus

e-----|------------------------------------------x-x--8/10-8--|
b-5~~-|------------------------------------------x-x--8/10-8--|
g-5~~-|------------------------------------------x-x----------|
d-5~~-|--8--8--8--8--8--8--8--8--10--10-------10--------------| x2
a-3~~-|--8--8--8--8--8--8--8--8--10--10-------10--------------|
e-----|--6--6--6--6--6--6--6--6--8---8---8h10-----------------|
"You say that there's nothing wrong at all
Sayin' that it's just like talkin' to a wall


e--0--0--0--1p0-0-1-0--5-----------|
b--2--2--2--2---2-2-2--5-----------|
g--0--0--0--0---0-0-0--6-----------|
d--2--2--2--2---2-2-2--5------7----|
a--0--0--0--0---0-0-0--7----x-7----|
e----------------------5----x-5----|
"And the phone wont stop ringin'
But nobody calls"


Chorus:

e-----------------------------------------------|
b-----------------------------------------------|
g---------------------------------------7--7----|
d--8--8--x-x--3-3-3--3--x-x--7--7--x-x--7--7-7--|
a--8--8--x-x--3-3-3--3--x-x--7--7--x-x--5--5-7--|
e--6--6--x-x--1-1-1--1--x-x--5--5--x-x-------5--|
"Bringin' it all back home
To the one that I left alone"

e------------------------------------------------------------|
b------------------------------------------------------------|
g---------------------------------------7--7-7-7--7-7-7--7---|
d--8--8--x-x--3-3-3--3--x-x--7--7--x-x--7--7-7-7--7-7-7--7---|
a--8--8--x-x--3-3-3--3--x-x--7--7--x-x--5--5-0-4--4-0-3--3---|
e--6--6--x-x--1-1-1--1--x-x--5--5--x-x---------------------0-|
"Bringin' it all back home
Waiting to know, is it too late to go"

e--1--1--1--1--1--1--1--1--|
b--1--1--1--1--1--1--1--1--|
g--1--1--1--1--1--1--1--1--|
d--3--3--3--3--3--3--3--3--|
a--3--3--3--3--3--3--3--3--|
e--1--1--1--1--1--1--1--1--|
"And bring it all back home"


Post Chorus: Rythym plays the Verse. 
             The lead kinda kicks in halfway through


e--------------------5-------5------------------7-----|
b--3-5--3-5--3-5--5-----6--6---6-------8--------9-----|
g--5-5--5-5--5-5--5------------------7---7---10-10----|
d--5-5--5-5--5-5--5---------------/9-------9----9-----|
a--3-3--3-3--3-3--3-----------------------------------|
e-----------------------------------------------------|

e--------------------------------------------------------|
b--10---12-13p12-10--15^^-------------------15-----13----|
g----------------------------------12-14^^(hold)V--12----|
d----------------------------12h14-----------------------|
a--------------------------------------------------------|
e--------------------------------------------------------|


Verse

Pre Chorus

Chorus

Post Chorus (try keep the G chord ringing)

e--3----------------|
b--3----------------|
g--0-------------0--|
d--0-------0-2-3----| x3
a--2-0-2-3----------|
e--3----------------|


Solo: 

Rythym 
e--------------------------------------------|
b--------------------------------------------|
g----5-------5--5---5----5-------5--5---5----|
d---5---5--5-5--5-5-5--5-5--5--5-5--5-5-5----|
a--3----3--3-3--3-3-3--3-3--3--3-3--3-3-3----|
e-----------------------------------------3--|

e---------------------------------------|
b---------------------------------------|
g----5-------5-------------2--2---------|
d---5---5--5-5--5--3--3--3-3--3--3-3----|
a--3----3--3-3--5--3--3--3-3--3--3-3----|
e---------------3--1--1--1-1--1--1-1----|

e-----------------5--5--5-5--7-7-7--7--7----|
b-----------------5--5--5-5--8-8-8--8--8----|
g--4--4--4-4-4-4--5--5--5-5--9-9-9--9--9----|
d--5--5--5-5-5-5--7--7--7-7--9-9-9--9--9----|
a--5--5--5-5-5-5--7--7--7-7--7-7-7--7--7----|
e--3--3--3-3-4-4--5--5--5-5--0-0-0--0--0-0--|
                                                 
e--1--3--------4----------------|
b--1--3--------4----------------|
g--2--4--------5----------------|
d--3--5--------6-------------9--|
a--3--5--6--6--6--x-x--9--9--9--|
e--1--3--4--4--4--x-x--7--7--7--|
         pm..          ....

e--5--5--5-5--7-7-7--7--7---1--3---------|
b--5--5--5-5--8-8-8--8--8---1--3----5----|
g--5--5--5-5--9-9-9--9--9---2--4----5----|
d--7--7--7-7--9-9-9--9--9---3--5----5----|
a--7--7--7-7--7-7-7--7--7---3--5----3----|
e--5--5--5-5--0-0-0--0--0-0-1--3---------|


Lead
e--------------------------------------------------|
b--13-------------12----/13--10----10-8b--8\6-5----|
g--12^^--12--9h12----12---------12----9b--9\7-5----|
d-----------------------------------------------5--|
a--------------------------------------------------|
e--------------------------------------------------|

e--------------------------5----------------8--|
b-----------------------------6--6/8-(8^^)-----|
g-------------------5h7p5----------------------|
d--------5-7--7p5-7----------------------------|
a--7p5-7---------------------------------------|
e----------------------------------------------|

e--10---10-------------7-----------------------------|
b--10^^-10^^v-8-----9--9--8--10--12--13p12-10--15^^--|
g----------------10---10-----------------------------|
d----------------------------------------------------|
a----------------------------------------------------|
e----------------------------------------------------|

e---------------------------------------------------------------------|
b------------------15-----------------15-15---------------------------|
g--------12-14/16-----12--13-13-16-16-------13-13--13-----------------|
d--12h14----------------------------------------------15-12----12-15--|
a-----------------------------------------------------------14--------|
e---------------------------------------------------------------------|

e--------------------------------------------------|
b--10---12-13p12-10--12--13--15p13-12\--1--3--5----|
g---------------------------------------2--4--5----|
d---------------------------------------3--5--5----|
a---------------------------------------3--5--3----|
e--------------------------------------------------|

Tabbed by: Brock Anderson
Добавлено: 15.06.2013
Другие материалы по этой песне:
  • Аккорды и текст

Страница создана 27.02.2012
http://primanota.ru/the-living-end/bringin-it-all-back-home-chords.htm
Привет, Гость.
Предлагаем пройти революционный курс по гитаре.
Подарок от PrimaNota.Ru, забирай!