PrimaNota.ru - самый крупный в мире бесплатный архив песенных текстов, аккордов, табулатур и нот


The Living End - Black Cat - текст песни, таба, бас-таба, видео

Регистрация Запомнить меня
Войти через:  Facebook Google Twitter Vk Yandex Mail.ru

The Living End - Black Cat - текст песни, таба, бас-таба, видео

Печатать
Просмотров: 99
Уроки эстрадного вокала в Санкт-Петербурге
                                   BLACK CAT


/= slide up
\= slide down
p= pull off
h= hammer on
b= half bend
^= full bend
^^= bend 2 frets
v= bring bend down
pm= palm mute
~= vibrado
~~= Whammy bar


Intro:

e----------------------------------------|
b----------------------------------------|
g--6-6-------------------6-6-------------|
d--6-6--------2-2--------6-6--------2-2--| x2
a--4-4--------2-2--------4-4--------2-2--|
e-------------0-0-------------------0-0--|

e-----------------------------------------------------------------|
b-----------------------------------------------------------------|
g--6-6-------------------6-6--------------------------------------|
d--6-6--------2-2--------6-6--------2--------2--------2--------2--| 
a--4-4--------2-2--------4-4--------2--------2--------2--------2--|
e-------------0-0-------------------0--------0--------0--------0--|


Pre Verse:

e-------------------------------------------------------------------|
b-------------------------------------------------------------------|
g-------------------------------------------------------------------|
d-------------------------------------------------------------------|
a--4-4-4-4-4-4---------------------4-4-4-4-4-4----------------------|
e--------------4-6-0-0-0-0-0-0-4-6-------------4-6-0-0-0-0-0-0-4-6--|

e-------------------------------------------------------------------|
b-------------------------------------------------------------------|
g-------------------------------------------------------------------|
d-------------------------------------------------------------------|
a--4-4-4-4-4-4---------------------4-4-4-4-4-4-4-4-4-4-4-4-4-4-4-4--|
e--------------4-6-0-0-0-0-0-0-4-6----------------------------------|



Verse 1:

e-------------------------------------------------------------------|
b-------------------------------------------------------------------|
g-------------------------------------------------------------------|
d-------------------------------------------------------------------| x3 
a--4-4-4-4-4-4---------------------4-4-4-4-4-4----------------------|
e--------------4-6-0-0-0-0-0-0-4-6-------------4-6-0-0-0-0-0-0-4-6--|


e--------------------------------------------------0--------0--------0--------0~~--|
b--------------------------------------------------0--------0--------0--------0~~--|
g--------------------------------------------------1--------1--------1--------1~~--|
d--------------------------------------------------2--------2--------2--------2~~--|
a--4-4-4-4-4-4---------------------4-4-4-4-4-4-----2--------2--------2--------2~~--|
e--------------4-6-0-0-0-0-0-0-4-6-------------4-6-0--------0--------0--------0~~--|



Chorus:

e----------------------------------------------|-----------------------------------|
b----6-6-6-6-6-6-6-6---------------------------|-----------------------------------|
g----6-6-6-6-6-6-6-6----1-1-1-1-1-1-1-1--------|--2-----4-----6-----8--------------|
d----6-6-6-6-6-6-6-6----2-2-2-2-2-2-2-2--(x3)--|--4-4-4-6-6-6-7-7-7-9-9-9-9-9-9\---|
a----4-4-4-4-4-4-4-4----2-2-2-2-2-2-2-2--------|--x-x-x-x-x-x-x-x-x-x-x-x-x-x-x----|
e-----------------------0-0-0-0-0-0-0-0--------|--2-2-2-4-4-4-5-5-5-7-7-7-7-7-7\---|



Pre Verse:

e-------------------------------------------------------------------|
b-------------------------------------------------------------------|
g-------------------------------------------------------------------|
d-------------------------------------------------------------------|
a--4-4-4-4-4-4---------------------4-4-4-4-4-4----------------------|
e--------------4-6-0-0-0-0-0-0-4-6-------------4-6-0-0-0-0-0-0-4-6--|



Verse 2: Same as verse 1, with 2nd guitar added

Guitar 2
e-------------------------------------------------------------------|
b--2-2-2-2-2-2------------------------------------------------------|
g--------------1-3---------------------------------------------1-3--|
d------------------2-2-2-2-2-2-1-2-3-3-3-3-3-3-1-3------------------| x3
a--------------------------------------------------2-2-2-2-2-2------|
e-------------------------------------------------------------------|

e--------------------------------------------------0----|
b--2-2-2-2-2-2-------------------------------------0----|
g--------------1-3---------------------------------1----|
d------------------2-2-2-2-2-2-1-2-3-3-3-3-3-3-1-3-2~~--| 
a--------------------------------------------------2~~--|
e--------------------------------------------------0~~--|



Chorus x2, then:

e--------------------------------------------------------|
b--------------------------------------------------------|
g--2-----4-----6-----8---------------2----4----6----8----|
d--4-4-4-6-6-6-7-7-7-9-9-9-9-9-9\----4----6----7----9----|
a--x-x-x-x-x-x-x-x-x-x-x-x-x-x-x-----x----x----x----x----|
e--2-2-2-4-4-4-5-5-5-7-7-7-7-7-7\----2----4----5----7----|



Bridge:

e------------------------|-----------------------------------------|
b------------------------|-----------------------------------------|
g------------------------|-----------------------------------------|
d-----------(x4)---------|-----------------------------------(x4)--|
a--------4---------------|--0-0-0-0-3-2-0-----------3-2-0----------|
e--0-4-6----------0-4-6--|----------------3-0-0-0-0-------3--------|

Breaks off into 2 guitars here

Rythym
e----------------------------------|----------------------------------------|
b----------------------------------|----------------------------------------|
g----------------------------------|----------------------------------------|
d----------------------------------|-6-6-6-6-6-6----------------------(x3)--|
a--------------------------------3-|-4-4-4-4-4-4-----2-2-2-2-2-2------------|
e--3-4-5-3-4-5-3-4-5-3-4-5-3-4-5---|-------------4-6-0-0-0-0-0-0-4-6--------|

Lead
e----------------------------------|--9--------------12---------------------|
b----------------------------------|--9--------------12---------------------|
g----------------------------------|--11^^-----------14^^--(x3)-------------|
d----------------------------------|----------------------------------------|
a----------------------------------|----------------------------------------|
e----------------------------------|----------------------------------------|



Chorus x2



Outro:

e----------------------------------------|----------------------|
b----------------------------------------|----------------------|
g--2-----4-----6-----8-------------------|--2----4----6----8----|
d--4-4-4-6-6-6-7-7-7-9-9-9-9-9-9\--(x2)--|--4----6----7----9----|
a--x-x-x-x-x-x-x-x-x-x-x-x-x-x-x---------|--x----x----x----x----|
e--2-2-2-4-4-4-5-5-5-7-7-7-7-7-7\--------|--2----4----5----7----|


Tabbed by Jason Zarpellon
jason_zarps@hotmail.com
www.thelivingendtabpage.cjb.net
Добавлено: 12.08.2013
Другие материалы по этой песне:
  • Аккорды и текст

Страница создана 05.06.2012
http://primanota.ru/the-living-end/black-cat-chords.htm
Привет, Гость.
Предлагаем пройти революционный курс по гитаре.
Подарок от PrimaNota.Ru, забирай!