PrimaNota.ru - самый крупный в мире бесплатный архив песенных текстов, аккордов, табулатур и нот


The Living End - Beware The Moon - таба, видео

Регистрация Запомнить меня
Войти через:  Facebook Google Twitter Vk Yandex Mail.ru

The Living End - Beware The Moon - таба, видео

Печатать
Просмотров: 130
Уроки эстрадного вокала в Санкт-Петербурге
-------------------------------------------------------------------------------
			     THE LIVING END - Beware The Moon
-------------------------------------------------------------------------------
Tabbed by: auditek
Email: auditek@gmail.com

Tuning: Standard

Intro
e------------------------------------------------------------|
b------------------------------------------------------------|
g------------------------------------------------------------|
d---------------------------------------------------7-7------|
a-2h4-5-5p4p2-4h5-7-7p5p4-6h7-9-9p7p6-7h9-10-10p9p7-----10p9-|
e------------------------------------------------------------|

e---------------------------------------------5-|
b---------------------------------------------6-|
g---------------------------------------------7-|
d---------------------------------------------7-|
a-2h4-5-5p4p2-4h5-7-7p5p4-6h7-9-9p7p6---------5-|
e-------------------------------------0-5-6-7---|


Verse
(p.m)
e------------------------------------|
b------------------------------------|
g------------------------------------|
d--------------------------------2-4-|
a-2-2-5-5-4-4-0-1--------1-1-4-4-----|
e--------------------2-2-------------|
 {	(x 8)      }{    (x2)	    }


Pre-Chorus

e----------------------------------|
b----------------------------------|
g----------------------------------|
d-----------------------9----------|
a-2h4-5-4h5-7-6h7-9-7-9---12-10-9--|
e----------------------------------|
  B   D
e-2---5-|
b-4---7-|
g-4---7-|
d-4---7-|
a-2---5-|
e-------|

Chorus
(strum each chord 8 times)
  B   D  E7   B  B    D  E7 F#7
e-2---5---7---2---2---5---7---11-|
b-4---7---9---4---4---7---9---11-|
g-4---7---9---4---4---7---9---11-|
d-4---7---9---4---4---7---9---11-|
a-2---5---7---2---2---5---7----9-|
e--------------------------------|

Interlude
e------------------------------------|
b------------------------------------|
g------------------------------------|
d------------------------------------|
a-2-0---0-2-2-7-5---7-7--2-0---0-2-2-|
e-----2-----------7----------2-------|

e---------------------------------|
b---------------------------------|
g---------------------------------|
d-------4-------4-------4-------4-|
a-7-5-----7-5-----7-5-----7-5-----|
e-----7-------7-------7-------7---|


Lyrics

She

She was the 7th in line

She

She had my heart in no time

She seemed like the normal everyday kinda

She

She had a secret to hide

She hoped I'd never find

Unaware do I care

I don't mind
Oooooo she scares the hell out of me

Oooooo but that's how I like it to be
Under the new light

Almost died of fright

Yeah

Under the new light

I was paralyzed

She changed right before my eyes
Under the moonlight
Well she was unafraid of horror films

And she liked the dark

She made up excuses to go walking in the park.
I tried to leave her

Yeah but I had the look

I was confused and amused and abused by her

Shes turning me into a nervous wreck

Make no mistake this girl gets as strange as it gets
Under the new light

Almost died of fright

Yeah

Under the new light

I was paralyzed

She changed right before my eyes
Under the moonlight
Under the moonlight

I almost died of fright

Under the moonlight

Beware the moon
Beware the moon

| /  slide up
| \  slide down
| h  hammer-on
| p  pull-off
| ~  vibrato
| +  harmonic
| x  Mute note
===============================================================================
Добавлено: 21.10.2013
Другие материалы по этой песне:
  • Аккорды и текст

Страница создана 21.10.2013
http://primanota.ru/the-living-end/beware-the-moon-chords.htm
Привет, Гость.
Предлагаем пройти революционный курс по гитаре.
Подарок от PrimaNota.Ru, забирай!