PrimaNota.ru - самый крупный в мире бесплатный архив песенных текстов, аккордов, табулатур и нот


The Lines - White Night - таба, видео

Регистрация Запомнить меня
Войти через:  Facebook Google Twitter Vk Yandex Mail.ru

The Lines - White Night - таба, видео

Печатать
Просмотров: 87
Уроки эстрадного вокала в Санкт-Петербурге
-------------------------------------------------------------------------------
                             White Night - The Lines
-------------------------------------------------------------------------------
Tabbed by: Jeff
band website: http://www.myspace.com/nervepylon

the lyrics were a little hard to decipher, my apologies

rhythm gtr

    A        C        A        F         G        F        G        E
e|---------------------------------------------------------------------------|
B|---------------------------------------------------------------------------|
G|---------------------------------------------------------------------------|
D|--7-7-7-7--10101010-7-7-7-7--3-3-3-3---5-5-5-5--3-3-3-3--5-5-5-5--2-2-2-2--|
A|--7-7-7-7--10101010-7-7-7-7--3-3-3-3---5-5-5-5--3-3-3-3--5-5-5-5--2-2-2-2--|
E|--5-5-5-5--8-8-8-8--5-5-5-5--1-1-1-1---3-3-3-3--1-1-1-1--3-3-3-3--0-0-0-0--|

main riff

e|---------------------------------------------------------------------------|
B|---------------------------------------------------------------------------|
G|-----5--8-7--5-----5--------3---6--5--3------------------------------------|
D|--7-------------7--------5---------------5---------------------------------|
A|---------------------------------------------------------------------------|
E|---------------------------------------------------------------------------|

A  C              A    F         G
Oh baby won't you come along

           F             G        E
I need somebody when the night is long

A       C                A          F    G
There's something that's calling me out

         F           G      E
Shadowed bright in a silver neon

A C        A         F       G
I stay far away from home

        F            G      E
I can't take a white night alone


          F            G        A 
chorus: "When all the stars say go. All the stars say go"

   F            G         A         G 
e|---5----------7---------9------------7-------------------------------------|
B|------6----------8---------10--10\8-----8----------------------------------|
G|-5---------7---------9-----------------------------------------------------|
D|---------------------------------------------------------------------------|
A|---------------------------------------------------------------------------|
E|---------------------------------------------------------------------------|

A          C             A       F         G
You can go hide down and go underground

           F       G        E
A shooting tube, a metallic sound

A   C               A        F         G
Ooh below where the city and bud

           F          G         E
We're in a high speed tunnel of love


A     C             A       F         G
We're shaked with a rush of air

         F               G      E
We're in sight but we're almost there


F            G        A 
And all the stars say go. All the stars say go

solo:

e|---------------------------------------------------------------------------|
B|---------------------5--7-8-7-5-5---5-------------5------------------------|
G|------------(4)--7------------------7b9r7--7--5---7b9r7--7--5--------------|
D|-------5-(7)---------------------------------------------------------------|
A|-5--7----------------------------------------------------------------------|
E|---------------------------------------------------------------------------|

e|---------------------------------------------------------------------------|
B|--------------5-7--/8-8--7-8-(7)-8p5-7p5-7p5--5-5---8p5-7p5-7p5------------|
G|----------5-7--------------------------------------------------------------|
D|------5-7------------------------------------------------------------------|
A|-5h7-----------------------------------------------------------------------|
E|---------------------------------------------------------------------------|

e|----5-7-8-7--8/10-10----7-8-7--8/10-10-----7-8-7--8/10-10---- etc. -------|
B|--8------------------------------------------------------------------------|
G|---------------------------------------------------------------------------|
D|---------------------------------------------------------------------------|
A|---------------------------------------------------------------------------|
E|---------------------------------------------------------------------------|


A              C        A          F         G
Lights stretch out like strings of pearls

           F          G       E
And lay in planets, a million whirls

A  C           A       F         G
He moves for a million skies

          F          G       E
A million loves in a million eyes

A        C          A      F         G
We can't st- thumbs in the way

          F              G        E
We can't stub there's no place to stay

A        C        A         F         G
We can't stub who won't ask why

       F        G     E
In our flashing paradise


F            G        A 
And all the stars say go. All the stars say go

| /  slide up
| \  slide down
| h  hammer-on
| p  pull-off
| ~  vibrato
| +  harmonic
| x  Mute note
===============================================================================
Добавлено: 04.05.2012
Другие материалы по этой песне:
  • Аккорды и текст

Страница создана 04.05.2012
http://primanota.ru/the-lines/white-night-chords.htm
Привет, Гость.
Предлагаем пройти революционный курс по гитаре.
Подарок от PrimaNota.Ru, забирай!