PrimaNota.ru - самый крупный в мире бесплатный архив песенных текстов, аккордов, табулатур и нот


The Like Young - Worry A Lot - таба, видео

Регистрация Запомнить меня
Войти через:  Facebook Google Twitter Vk Yandex Mail.ru

The Like Young - Worry A Lot - таба, видео

Печатать
Просмотров: 52
The Like Young - Worry A Lot
Intro

e|----------------------------------------------------------------------------|
B|----------------------------------------------------------------------------|
G|---------------5--5--5--5-5--2--2--2--2-2-----------------------------------|
D|--5-----5------5--5--5--5-5--2--2--2--2-2-x3-2--2--2--2-2--3--3--3--3-3-----|
A---5-x5--5-x5---3--3--3--3-3--0--0--0--0-0----2--2--2--2-2--3--3--3--3-3-----|
E|--3-----3------------------------------------0--0--0--0-0--1--1--1--1-1-----|

Verse - Same As the last part of the intro, just listen to the song for the strumming pattern

e|--------------------------------------------------------------------|
B|--------------------------------------------------------------------|
G|-------5--5--5--5-5--2--2--2--2-2-----------------------------------|
D|-------5--5--5--5-5--2--2--2--2-2-x3-2--2--2--2-2--3--3--3--3-3-----|
A|-------3--3--3--3-3--0--0--0--0-0----2--2--2--2-2--3--3--3--3-3-----|
E|-------------------------------------0--0--0--0-0--1--1--1--1-1-----|

Gt. 2 Over the verse
e|--------------------------------------------------|
B|---------8--6------------8--6---------------------|
G|---------------9--7--9---------9--7--9------------|
D|---------------------------------------9--7-------|
A|--------------------------------------------------|
E|--------------------------------------------------|

 Chorus
e|--------------------------------------------------|
B|--------------------------------------------------|
G|---------9-9-9-5-5-5-7-7-7-2-2-2------------------|
D|---------9-9-9-5-5-5-7-7-7-2-2-2------------------|
A|---------7-7-7-3-3-3-5-5-5-0-0-0------------------|
E|--------------------------------------------------|

Bridge/solo I will update once I figure it out.
Добавлено: 21.06.2013
Другие материалы по этой песне:
  • Аккорды и текст

Страница создана 21.06.2013
http://primanota.ru/the-like-young/worry-a-lot-chords.htm
Привет, Гость.
Предлагаем пройти революционный курс по гитаре.
Подарок от PrimaNota.Ru, забирай!