PrimaNota.ru - самый крупный в мире бесплатный архив песенных текстов, аккордов, табулатур и нот


The Lighthouse And The Whaler - Under Mountain Under Ground - аккорды и текст, видео

Регистрация Запомнить меня
Войти через:  Facebook Google Twitter Vk Yandex Mail.ru

The Lighthouse And The Whaler - Under Mountain Under Ground - аккорды и текст, видео

Печатать
Просмотров: 180
Under Mountain Under Ground
The Lighthouse And The Whaler
-------------------------------------------------------------------------------
           UNDER MOUNTAIN, UNDER GROUND - The Lighthouse and the Whaler
-------------------------------------------------------------------------------

Tabbed by: bengtaaron


Tuning: Standard


*The third beat of the D chord in the intro/verse is technically an inverted G7M   (xx0032). Just take your first finger off the G string 2nd fret for one beat.

Intro:

Bm  A  D*

(Transcribed Piano -- repeats throughout) 

e|--------------------------|------------------|
B|--------------------------|------------------|
G|--------------------------|------------------|
D|--(0)---4-2-0---4-2-0--0--|--2-4-0--(0)-2-4--|
A|------2-------0-----------|------------------|
E|--------------------------|------------------|


Bm         A       D
I love to hold you up
Against the raging tide
I love to hold you up
Until the end of time


D
I'll wait for you here you've come to say
Come back to me I'll find you there


                                 [--3--]
e|--17-15-14-12-14-12---------------------|
B|--------------------15----12-----12-15--|
G|------------------------------14--------|
D|----------------------------------------|
A|----------------------------------------|
E|----------------------------------------|

D
Oh clouds undecided don't you stray
You're stacked up till the end of day

Bm         A       D
I love to hold you up
Against the raging tide
I love to hold you up
Until the end of time

D
I'll wait for you here you've come to say 
Under the mountain we will pray
And desolate, life's complexities 
Underneath the ground beyond all peace


(Lead line variations repeat throughout)

                            (x3)
             [---3--]                        [---3--]                       
e|--17-17-17-17-17-17--15-14-15--|--17-17-17-17-17-17--15-14-12--|
B|-------------------------------|-------------------------------|
G|-------------------------------|-------------------------------|
D|-------------------------------|-------------------------------|
A|-------------------------------|-------------------------------|
E|-------------------------------|-------------------------------|

                            (x2)
             [---3--]                        [---3--]                        
e|--17-17-17-17-17-17--15-14-15--|--17-17-17-17-17-17--15-14-12-----|
B|-------------------------------|------------------------------15--|
G|-------------------------------|----------------------------------|
D|-------------------------------|----------------------------------|
A|-------------------------------|----------------------------------|
E|-------------------------------|----------------------------------|

Bm         A       D
I love to hold you up
Against the raging tide
I love to hold you up
Until the end of time

D
The secret we shared upon that hill
Your passing over was so still 


Добавлено: 07.07.2015
Вам также может быть интересно:
Другие материалы по этой песне:
  • Аккорды и текст

Страница создана 07.07.2015
http://primanota.ru/the-lighthouse-and-the-whaler/under-mountain-under-ground-chords.htm
Привет, Гость.
Предлагаем пройти революционный курс по гитаре.
Подарок от PrimaNota.Ru, забирай!