PrimaNota.ru - самый крупный в мире бесплатный архив песенных текстов, аккордов, табулатур и нот


The Lemon Pipers - Everything Is You - бас-таба, видео

Регистрация Запомнить меня
Войти через:  Facebook Google Twitter Vk Yandex Mail.ru

The Lemon Pipers - Everything Is You - бас-таба, видео

Печатать
Просмотров: 56
Tabbed by: 6METAL6BASSIST6
E-mail: petergriffinav@gmail.com

Tuning: EADG

G|----------------------------------------------------------------|
D|----------------------------------------------------------------|
A|7---7-------7---6---6-------6---4---4-------4---2---2-------2---|
E|----------------------------------------------------------------|

G|----------------------------------------------------------------|
D|4---4-------4---6---6-------6---8---8-------8---9---------------|
A|----------------------------------------------------9---6-------|
E|------------------------------------------------------------7---|

0:13

G|----------------------------------------------------------------|
D|----------------------------------------------------------------|
A|7---7-------7---6---6-------6---4---4-------4---2---2-------2---|
E|----------------------------------------------------------------|

G|----------------------------------------------------------------|
D|4---4-------4---6---6-------6---8---8---------------------------|
A|----------------------------------------9---6---------------6---|
E|------------------------------------------------7---7---9-------|

G|----------------------------------------------------------------|
D|----------------------------------------------------------------|
A|7---7-------7---6---6-----------4---4-------4---2---2-------2---|
E|----------------------------------------------------------------|

G|----------------------------------------------------------------|
D|4---4-------4---6---6-------6---8---8-------8---9---------------|
A|----------------------------------------------------9---6-------|
E|------------------------------------------------------------7---|

0:38

G|----------------------------------------------------------------|
D|--------------------------------6---6-------6---7---7-------7---|
A|7---7-------7---9---9-------9-----------------------------------|
E|----------------------------------------------------------------|

G|----------------------------------------------------------------|
D|9---9-------9---6---9-------------------------------------------|
A|--------9---------------9-------7---7-------7---9---9-------9---|
E|----------------------------7-----------------------------------|

G|----------------------------------------------------------------|
D|6---6-------6---7---7-------7---9---9---7---9---6---9-----------|
A|--------------------------------------------------------9-------|
E|------------------------------------------------------------7---|

0:59

G|----------------------------------------------------------------|
D|----------------------------------------------------------------|
A|7---7-------7---6---6-------6---4---4-------4---2---2-------2---|
E|----------------------------------------------------------------|

G|----------------------------------------------------------------|
D|4---4-------4---6---6-------6---8---8-------8---9-------9-------|
A|----------------------------------------------------9-------9---|
E|----------------------------------------------------------------|

G|----------------------------------------------------------------|
D|----------------------------------------------------------------|
A|7---7-------7---6---6-------6---4---4-------4---2---2-------2---|
E|----------------------------------------------------------------|

G|----------------------------------------------------------------|
D|4---4-------4---6---6-------6---8---8-------8---9---------------|
A|----------------------------------------------------9---6-------|
E|------------------------------------------------------------7---|

1:25

G|----------------------------------------------------------------|
D|----------------------------------------------------------------|
A|7---7-------7---6---6-------6---4---4-------4---2---2-------2---|
E|----------------------------------------------------------------|

G|----------------------------------------------------------------|
D|4---4-------4---6---6-------6---8---8-------8---9---------------|
A|----------------------------------------------------9---6-------|
E|------------------------------------------------------------7---|

G|----------------------------------------------------------------|
D|----------------------------------------------------------------|
A|7---7-------7---6---6-------6---4---4-------4---2---2-------2---|
E|----------------------------------------------------------------|

G|----------------------------------------------------------------|
D|4---4-------4---6---6-------6---8---8-------8---9-------9-------|
A|----------------------------------------------------9-------9---|
E|----------------------------------------------------------------|

1:52

G|----------------------------------------------------------------|
D|--------------------------------6---6-------6---7---7-------7---|
A|7---7-------7---9---9-------9-----------------------------------|
E|----------------------------------------------------------------|

G|----------------------------------------------------------------|
D|9---9---7---9---6---9-------------------------------------------|
A|------------------------9-------7---7-------7---9---9-------9---|
E|----------------------------7-----------------------------------|

G|----------------------------------------------------------------|
D|6---6-------6---7---7-------7---9---9---7---9---6---9-----------|
A|--------------------------------------------------------9-------|
E|------------------------------------------------------------7---|

2:10

G|----------------------------------------------------------------|
D|----------------------------------------------------------------|
A|7---7-------7---6---6-------6---4---4-------4---2---2-------2---|
E|----------------------------------------------------------------|

G|----------------------------------------------------------------|
D|4---4-------4---6---6-------6---8---8-------8---9---------------|
A|----------------------------------------------------9---6-------|
E|------------------------------------------------------------7---|

G|----------------------------------------------------------------|
D|----------------------------------------------------------------|
A|7---7-------7---6---6-------6---4---4-------4---2---2-------2---|
E|----------------------------------------------------------------|

G|----------------------------------------------------------------|
D|4---4-------4---6---6-------6---8---8---9-----------------------|
A|--------------------------------------------9---6-----------6---|
E|----------------------------------------------------7---9-------|

G|----------------------------------------------------------------|
D|----------------------------------------------------------------| fades out here.
A|7---7-------7---6---6-------6---4---4-------4---2---2-------2---|
E|----------------------------------------------------------------|
Добавлено: 23.06.2016
Другие материалы по этой песне:
  • Аккорды и текст

Страница создана 23.06.2016
http://primanota.ru/the-lemon-pipers/everything-is-you-chords.htm
Привет, Гость.
Предлагаем пройти революционный курс по гитаре.
Подарок от PrimaNota.Ru, забирай!