PrimaNota.ru - самый крупный в мире бесплатный архив песенных текстов, аккордов, табулатур и нот


The Legendary Tigerman - Honey Youre Too Much - таба, бас-таба, видео

Регистрация Запомнить меня
Войти через:  Facebook Google Twitter Vk Yandex Mail.ru

The Legendary Tigerman - Honey Youre Too Much - таба, бас-таба, видео

Печатать
Просмотров: 119
Honey, You're Too Much
The Legendary Tiger Man
From the album Masquerade

http://www.legendarytigerman.com/

Intro - Verse (bass line actually)

---------------------------------|
---------------------------------|
---------------------------------|
---------------------------------|
---------------------------------|
-7-7-7-7-7-7-7-7-9-9-9-9-5-5-5-5-|


Sometimes, you hear an acoustic guitar just playing the chord B :

7
7
8
9
9
7


Before the chorus, slide the last note down :

---------------------------------|
---------------------------------|
---------------------------------|
---------------------------------|
---------------------------------|
-5-5-5-5-7/0---------------------|


Chorus (Distorted guitar) (x3)


---------------------------------------------------------------|
---------------------------------------------------------------|
-----------------7-7-7-7-------9-9-9-9-9-9-9-9-7-7-7-7---------|
-9-9-9-9-9-9-9-9-7-7-7-7-7-7-7-9-9-9-9-9-9-9-9-7-7-7-7-7-7-7-7-|
-9-9-9-9-9-9-9-9-5-5-5-5-7-7-7-7-7-7-7-7-7-7-7-5-5-5-5-7-7-7-7-|
-7-7-7-7-7-7-7-7---------5-5-5-------------------------5-5-5-5-|

There is a sort of solo phrase at some point in the second chorus

-7---7-7-7----------------------------7---7---------------------------7---7----------|
-----------10---7--7-7-7-7-7-7-7-7--7-------10--7--7-7-7-7-7-7-7-7--7-------10--7/0--|
-------------------------------------------------------------------------------------|
-------------------------------------------------------------------------------------|
-------------------------------------------------------------------------------------|
-------------------------------------------------------------------------------------|


There you have it! Repeat the chorus and you're done!

N.B.
The "solo" isn't perfect (i cut a small part out), but you can easily guess it, it's the 
three notes all the time.
Добавлено: 01.06.2012
Вам также может быть интересно:
Другие материалы по этой песне:
  • Аккорды и текст

Страница создана 11.05.2012
http://primanota.ru/the-legendary-tigerman/honey-youre-too-much-chords.htm
Привет, Гость.
Предлагаем пройти революционный курс по гитаре.
Подарок от PrimaNota.Ru, забирай!