PrimaNota.ru - самый крупный в мире бесплатный архив песенных текстов, аккордов, табулатур и нот


The Legendary Tigerman - Bad Luck Rhythm N Blues Machine - таба, видео

Регистрация Запомнить меня
Войти через:  Facebook Google Twitter Vk Yandex Mail.ru

The Legendary Tigerman - Bad Luck Rhythm N Blues Machine - таба, видео

Печатать
Просмотров: 105
Verse:

e|---------------------|
B|---------------------|
G|---------------------|
D|---------------------|
A|------1------1-------|
E|--3------3-----------|
(play this throughout the whole verse)

And then:

Pre-Chorus: (right after he says "I'm a real grown man and I feel like a teen)

e|---------------------|
B|---------------------|
G|---------------------|
D|---------------------|
A|------1--------------|
E|--3------3-3---------|

...let's go!

e|-----------------------------|
B|-----------------------------|
G|-----------------------------|
D|-----------------------------|
A|----3---1-------3---1--------|
E|------------3-----------3----|

Repeat throughout the song

Ends on:

e|-----------------------------|
B|-----------------------------|
G|-----------------------------|
D|-----------------------------|
A|-----------------------------|
E|-----3-----------------------|
Добавлено: 07.03.2016
Вам также может быть интересно:
Другие материалы по этой песне:
  • Аккорды и текст

Страница создана 07.03.2016
http://primanota.ru/the-legendary-tigerman/bad-luck-rhythm-n-blues-machine-chords.htm
Привет, Гость.
Предлагаем пройти революционный курс по гитаре.
Подарок от PrimaNota.Ru, забирай!