PrimaNota.ru - самый крупный в мире бесплатный архив песенных текстов, аккордов, табулатур и нот


The Last Vegas - Raw Dog - таба, видео

Регистрация Запомнить меня
Войти через:  Facebook Google Twitter Vk Yandex Mail.ru

The Last Vegas - Raw Dog - таба, видео

Печатать
Просмотров: 134
Song:   Raw Dog
Artist: The Last Vegas
Tuning: Guitar 1- Standard   EADGBe
        Guitar 2- Drop D     DADGBe

The Last Vegas official website: http://www.thelastvegas.com/


Guitar 1
e |-----------------------------------------------------|
B |--5--5--5--8---8--8------8p7p5--8p7p5--8p7p5--8p7p5--|
G |--4--4--4--7---7--7----------------------------------|
D |--2--2--2--5---5--5----------------------------------|
A |-----------------------------------------------------|
E |-----------------------------------------------------|

Guitar 2
e |-----------------------------------------------------|
B |-------------------------5p3p0--5p3p0--5p3p0--5p3p0--|
G |-----------------------------------------------------|
D |--2--2--2--5---5--5----------------------------------|
A |--2--2--2--5---5--5----------------------------------|
D |--2--2--2--5---5--5----------------------------------|


Guitar 1
e |-----------------------------------7b----------------|
B |--5--5--5--8---8--8------10--8--7--------------------|
G |--4--4--4--7---7--7----------------------------------|
D |--2--2--2--5---5--5----------------------------------|
A |-----------------------------------------------------|
E |-----------------------------------------------------|

Guitar 2
e |-----------------------------------------------------|
B |--------------------------5--3--1--------------------|
G |-----------------------------------4b----------------|
D |--2--2--2--5---5--5----------------------------------|
A |--2--2--2--5---5--5----------------------------------|
D |--2--2--2--5---5--5----------------------------------|


Guitar 1
e |-----------------------------------------------------|
B |--5--5--5--8---8--8---7--10p8p7--10p8p7--10p8p7--9\--|
G |--4--4--4--7---7--7----------------------------------|
D |--2--2--2--5---5--5----------------------------------|
A |-----------------------------------------------------|
E |-----------------------------------------------------|

Guitar 2
e |-----------------------------------------------------|
B |-----------------------------------------------------|
G |--------------------------4p2p0---4p2p0---4p2p0--4\--|
D |--2--2--2--5---5--5----------------------------------|
A |--2--2--2--5---5--5----------------------------------|
D |--2--2--2--5---5--5----------------------------------|


Guitar 1
e |-----------------------------------------------------|
B |--5--5--5--8---8--8-------------------------------5--|
G |--4--4--4--7---7--7--7----------------------------4--|
D |--2--2--2--5---5--5--7----let ring-------------0--2--|
A |---------------------5-------------------------------|
E |-----------------------------------------------------|

Guitar 2
e |-----------------------------------------------------|
B |-----------------------------------------------------|
G |-----------------------------------------------------|
D |--2--2--2--5---5--5--0----------------------------2--|
A |--2--2--2--5---5--5--0----let ring----------------2--|
D |--2--2--2--5---5--5--0-------------------------0--2--|


Guitar 1
e |----------------------------------------|
B |----------------------------------------|
G |----------------------------------------|
D |------2--0--2---2--0--2--------------2--|
A |-------------------------2--1---1-1--2--|
E |--0----------------------------------0--|

Guitar 2
e |-------------------------------------3--|
B |-------------------------------------5--|
G |-------------------------------------4--|
D |-------------------------------------2--|
A |----------------------------------------|
D |----------------------------------------|


Guitar 1
e |-------------------------------------------|
B |-------------------------------------------|
G |-------------------------------------------|
D |------2--0--2---2--0--------------------2--|
A |----------------------2--1--0-----------2--|
E |--0----------------------------3---3--3-0--|

Guitar 2
e |----------------------------------------3--|
B |----------------------------------------5--|
G |----------------------------------------4--|
D |----------------------------------------2--|
A |-------------------------------------------|
D |-------------------------------------------|


Guitar 1
e |----------------------------------------|
B |----------------------------------------|
G |-------------------------------------2--|
D |------2--0--2---2--0--2--------------2--|
A |-------------------------2--1---1--1-0--|
E |--0-------------------------------------|

Guitar 2
e |-------------------------------------3--|
B |-------------------------------------5--|
G |-------------------------------------4--|
D |-------------------------------------2--|
A |----------------------------------------|
D |----------------------------------------|


Guitar 1
e |----------------------------------------|
B |----------------------------------------|
G |----------------------------------------|
D |------2--0--2---2--0--------------------|
A |----------------------------------------|
E |--0-------------------3/////////////18--|

Guitar 2
e |----------------------------------------|
B |----------------------------------------|
G |----------------------------------------|
D |----------------------------------------|
A |----------------------2/////////////14--|
D |----------------------------------------|


Guitar 1
e |----------------------------------------|
B |----------------------------------------|
G |----------------------------------------|
D |------2--0--2---2--0--2--0--------------|
A |----------------------------2--1---1-1--|
E |--0-0-----------------------------------|

Guitar 2
e |----------------------------------------|
B |------5--3--5---5--3--5--3--------------|
G |----------------------------4--3---3-3--|
D |--2-2-----------------------------------|
A |----------------------------------------|
D |----------------------------------------|


Guitar 1
e |----------------------------------------|
B |----------------------------------------|
G |----------------------------------------|
D |------2--0--2---2--0-----7--6--5---5-5--|
A |----------------------2-----------------|
E |--0-0-----------------------------------|

Guitar 2
e |-------------------------5--4--3---3-3--|
B |------5--3--5---5--3--0-----------------|
G |----------------------------------------|
D |--2-2-----------------------------------|
A |----------------------------------------|
D |----------------------------------------|


Guitar 1
e |----------------------------------------|
B |----------------------------------------|
G |----------------------------------------|
D |--2---2--0--2---2--0--2--0--------------|
A |--2-------------------------2--1---1-1--|
E |--0-0-----------------------------------|

Guitar 2
e |----------------------------------------|
B |------5--3--5---5--3--5--3--0-----------|
G |-------------------------------3---3-3--|
D |----------------------------------------|
A |----------------------------------------|
D |----------------------------------------|


Guitar 1
e |----------------------------------------|
B |----------------------------------------|
G |----------------------------------------|
D |--2---2--0--2---2--1--0--7--6--5--------|
A |--2-------------------------------------|
E |--0-0-----------------------------------|

Guitar 2
e |----------------------------------------|
B |------5--3--5---5--3-----5--4--2/-------|
G |----------------------0-----------------|
D |----------------------------------------|
A |----------------------------------------|
D |----------------------------------------|


END OF INTRO
Добавлено: 02.05.2012
Другие материалы по этой песне:

Страница создана 08.03.2012
http://primanota.ru/the-last-vegas/raw-dog-chords.htm
Привет, Гость.
Предлагаем пройти революционный курс по гитаре.
Подарок от PrimaNota.Ru, забирай!