PrimaNota.ru - самый крупный в мире бесплатный архив песенных текстов, аккордов, табулатур и нот


The Last Ten Seconds Of Life - Punishment - таба, видео

Регистрация Запомнить меня
Войти через:  Facebook Google Twitter Vk Yandex Mail.ru

The Last Ten Seconds Of Life - Punishment - таба, видео

Печатать
Просмотров: 183
Уроки эстрадного вокала в Санкт-Петербурге
---------------------------------------------------------------
           Punishment - The Last Ten Seconds of Life
                    http://youtu.be/jdM5B5N_TUk
---------------------------------------------------------------
Tabbed by: Bacon
E-mail: f2bacon@gmail.com

Tuning: Drop F ( F C F Bb D G)

|--------------------------------------------------------------|
|--------------------------------------------------------------|
|--------------------------------------------------------------|
|-3-2-5-1---3-2-5-1---3-2-5-1---3-2-1--------------------------|
|-3-2-5-1---3-2-5-1---3-2-5-1---3-2-1--------------------------| x1
|-3-2-5-1---3-2-5-1---3-2-5-1---3-2-1--------------------------|

|--------------------------------------------------------------|
|--------------------------------------------------------------|
|--------------------------------------------------------------|
|--------------------------------------------------------------|
|-0-0-0000-0-0--0-0-0-0000-0-0--0-0-0000-0-0--0-0-0-0000-------| x1
|-1-1-1111-1-1--1-1-1-1111-1-1--1-1-1111-1-1--1-1-1-1111-1b----|

|--------------------------------------------------------------|
|--------------------------------------------------------------|
|--------------------------------------------------------------|
|--------------------------------------------------------------|
|-0000-0000-------0000-0-0000-0-0------------------------------| x2
|-0000-0000-------0000-0-0000-0-0------------------------------|


|--------------------------------------------------------------|
|--------------------------------------------------------------|
|--------------------------------------------------------------|
|-1--2--3-2-1-----2-1-3----------------------------------------|
|-1--2--3-2-1-3-2-2-1-3----------------------------------------| x2
|-1--2--3-----3-2-----3----------------------------------------|

|--------------------------------------------------------------|
|--------------------------------------------------------------|
|--------------------------------------------------------------|
|-111--222--333--2-1-3-2-2-1-3---------------------------------|
|-111--222--333--2-1-3-2-2-1-3---------------------------------| x4
|-111--222--333------3-2-----3---------------------------------|

|--------------------------------------------------------------|
|-------h------------------------------------------------------|
|-------h------------------------------------------------------|
|-2-3-1---2-3-1-5---2-3-1-4-3-2--------------------------------|
|-2-3-1---2-3-1-5---2-3-1-4-3-2---0-0-0-0-0-0------------------| x4
|-2-3-1---2-3-1-5---2-3-1-4-3-2---1-1-1-1-1-1------------------|

|--------------------------------------------------------------|
|--------------------------------------------------------------|
|--------------------------------------------------------------|
|--------------------------------------------------------------|
|---------------0-0----------0-0-------------------------------| x4
|-0------1b-----1-1----------1-1-------------------------------|


************************************

| b   Bend
| h   Fancy harmonic

Feel free to check out my band
fb.me/asjudgementdayapproaches
Добавлено: 12.10.2013
Другие материалы по этой песне:

Страница создана 16.07.2013
http://primanota.ru/the-last-ten-seconds-of-life/punishment-chords.htm
Привет, Гость.
Предлагаем пройти революционный курс по гитаре.
Подарок от PrimaNota.Ru, забирай!