PrimaNota.ru - самый крупный в мире бесплатный архив песенных текстов, аккордов, табулатур и нот


The L Word - The Way That We Live - таба, видео

Регистрация Запомнить меня
Войти через:  Facebook Google Twitter Vk Yandex Mail.ru

The L Word - The Way That We Live - таба, видео

Печатать
Просмотров: 308
Уроки эстрадного вокала в Санкт-Петербурге
Author/Artist: Betty
Title: The Way That We Live [The L Word Theme]

0:06  Girls in tight dresses….

-2-1-0-------2-1-0-------2-1-0-------2-1-0------|
-------3-2-0-------3-0---------3-2-0-------3-0--|
------------------------------------------------|
------------------------------------------------|
------------------------------------------------|
------------------------------------------------|

0:18  Women who long, love, lust…

---2-1-2-1-0---2-0-2---2-0------2-0----2-0-5--2--|
-0-----------0-------------3--------3------------|
-------------------------------------------------|
-------------------------------------------------|
-------------------------------------------------|
-------------------------------------------------|

0:38  Talking, laughing, loving, breathing,…

-2-1-2-1-2-1-2-1-2-1-2-1-2-1-2-1-2-1-2-1-2-1-2-1-2-1-2-1-2-1--|
--------------------------------------------------------------|
--------------------------------------------------------------|
--------------------------------------------------------------|
--------------------------------------------------------------|
--------------------------------------------------------------|

0:45  This is the way…

----------------0---0---0-2-3-2-3-----3--2---|
-0-2--0-2-0-2-3---3---3----------------------|
---------------------------------------------|
---------------------------------------------|
---------------------------------------------|
---------------------------------------------|
Добавлено: 08.03.2012
Вам также может быть интересно:
Другие материалы по этой песне:
  • Аккорды и текст

Страница создана 08.03.2012
http://primanota.ru/the-l-word/the-way-that-we-live-chords.htm
Привет, Гость.
Предлагаем пройти революционный курс по гитаре.
Подарок от PrimaNota.Ru, забирай!