PrimaNota.ru - самый крупный в мире бесплатный архив песенных текстов, аккордов, табулатур и нот


The Kovenant - Mannequin - текст песни, таба, бас-таба, видео

Регистрация Запомнить меня
Войти через:  Facebook Google Twitter Vk Yandex Mail.ru

The Kovenant - Mannequin - текст песни, таба, бас-таба, видео

Печатать
Просмотров: 222
Авторы музыки: The Kovenant
Авторы текста: The Kovenant
3. Mannequin

Tuning:Standard

Riff1:x4
e|----------------------------------------------------------|
B|----------------------------------------------------------|
G|----------------------------------------------------------|
D|----------------------------------------------------------|
A|-5-5-5-5-5xx--8-8-8-8-8xx--1010101010xx-12-12-12-12-12xx--|
E|-3-3-3-3-3xx--6-6-6-6-6xx--8-8-8-8-8xx--10-10-10-10-10xx--|
Keyboard...

Riff2:x1
e|--------------------------------------------|
B|--------------------------------------------|
G|--------------------------------------------|
D|--------------------------------------------|
A|-5-8-6----55555555-8888-6666----------------|
E|-3-6-4-x2-33333333-6666-4444-x2-------------|
          PM..................

Riff1:x4
Keyboard....
Riff2:x1

Riff3:x4
e|--------------------------------------------------|
B|--------------------------3333--------------------|
G|--------------------------3333--------------------|
D|---------------5----------------------------------|
A|-5555-5555-8-6-5-5555-5555------------------------|
E|-3333-3333-6-4---3333-3333------------------------|


SOLO Rhytm:Play during the solo!
e|-------------------------------------------|
B|-------------------------------------------|
G|-------------------------------------------|
D|----------------------------------1111-1111|
A|-5555-5555--5555-5555--3333-3333--1111-1111|
E|-3333-3333--3333-3333--1111-1111-----------|

SOLO
e|--------5-8-6-5-3-5-6-8-6-5h6p5-3-1-1h3p2-1h3p2-3h6p5-3h6p5-3h6p5-3h6p5-|
B|-3^33-3^----------------------------------------------------------------|
G|------------------------------------------------------------------------|
D|------------------------------------------------------------------------|
A|------------------------------------------------------------------------|
E|------------------------------------------------------------------------|

e|-3h6p5-3h6p5-3h6p5--9^999-9^-5/6-66/8-88/10-1010\8-15h14p12-10h9p7-3h6p5-|
B|-------------------------------------------------------------------------|
G|-------------------------------------------------------------------------|
D|-------------------------------------------------------------------------|
A|-------------------------------------------------------------------------|
E|-------------------------------------------------------------------------|

e|-15^-15^-3h6p5-3h6p5-3h6p5-3h6p5-15^-3h6p5-3h6p5-3h6p5-3h6p5-888-6-5-333-|
B|-------------------------------------------------------------------------|
G|-------------------------------------------------------------------------|
D|-------------------------------------------------------------------------|
A|-------------------------------------------------------------------------|
E|-------------------------------------------------------------------------|

e|-1-0---------------------------------------------------------------------|
B|-------------------------------------------------------------------------|
G|-------------------------------------------------------------------------|
D|-------------------------------------------------------------------------|
A|-------------------------------------------------------------------------|
E|-------------------------------------------------------------------------|

Riff1:x12

END!
Добавлено: 19.08.2013
Другие материалы по этой песне:
  • Аккорды и текст

Страница создана 30.04.2012
http://primanota.ru/the-kovenant/mannequin-chords.htm
Привет, Гость.
Предлагаем пройти революционный курс по гитаре.
Подарок от PrimaNota.Ru, забирай!