PrimaNota.ru - самый крупный в мире бесплатный архив песенных текстов, аккордов, табулатур и нот


The Kovenant - Jihad - текст песни, таба, бас-таба, видео

Регистрация Запомнить меня
Войти через:  Facebook Google Twitter Vk Yandex Mail.ru

The Kovenant - Jihad - текст песни, таба, бас-таба, видео

Печатать
Просмотров: 100
Уроки эстрадного вокала в Санкт-Петербурге
Авторы музыки: The Kovenant
Авторы текста: The Kovenant
-------------------------------------------------------------------------------
			     Jihad - The Kovenant
-------------------------------------------------------------------------------
Tabbed by:Derz
Email:phillip55@web.de
This is the whole song.
with solos and everything.
it wasn't easy . so if something isn't alright mail me.

Tuning:EADGbe

Riff1:x3
e|---------------------------------------------------------------------------|
B|---------------------------------------------------------------------------|
G|---------------------------------------------------------------------------|
D|---------------------------------------------------------------------------|
A|-7777-8-5-8-5555-8-10-8-----10101010-11-8-11-10101010-11-13-11-------------|
E|-5555-6-3-6-7777-6-8--6-x2--8-8-8-8--9--6-9--8-8-8-8--9--11-9--------------|

Riff2:x2
e|---------------------------------------------------------------------------|
B|---------------------------------------------------------------------------|
G|---------------------------------------------------------------------------|
D|---------------------------------------------------------------------------|
A|-5-8-4-8-9-5-4-44----------------------------------------------------------|
E|-3-6-2-6-7-3-2-22----------------------------------------------------------|

Riff1:x3

Riff3:x16
e|---------------------------------------------------------------------------|
B|---------------------------------------------------------------------------|
G|---------------------------------------------------------------------------|
D|---------------------------------------------------------------------------|
A|-77--555-------------------------------------------------------------------|
E|-55xx333-------------------------------------------------------------------|

Riff4:x4 (Jihad-in the name of Hate, Jihad- The twisted hands of faith)

e|---------------------------------------------------------------------------|
B|---------------------------------------------------------------------------|
G|---------------------------------------------------------------------------|
D|---------------------------------------------------------------------------|
A|-77-8-7-5--10-8------------------------------------------------------------|
E|-55-6-5-3--8--6x2----------------------------------------------------------|

Rhytm for solo 1 is Riff4


Solo 1


2:22
                                  (..........Fast Picking........)
|---------------------------------------------------------------------|
|-9-10-12-10-12-10-12-10-12-10-12-9h10h12-9h10h12-9h10h12-9h10h12-----|
|-----------------------------------------------------------------10-9|
|---------------------------------------------------------------------|
|---------------------------------------------------------------------|
|---------------------------------------------------------------------|

  (............Fast Picking......)
|---------------------------------------------------------------------|
|-9h12h10-9h12h10-9h12h10-9h12h10-12-12-12-10-10-10/9-----------------|
|----------------------------------------------------21-19-17-16-15/14|
|---------------------------------------------------------------------|
|---------------------------------------------------------------------|
|---------------------------------------------------------------------|


Riff5:x1

e|---------------------------------------------------------------------------|
B|---------------------------------------------------------------------------|
G|---------------------------------------------------------------------------|
D|---------------------------------------------------------------------------|
A|--77778888777555----77778888777-10-8-----777777888888-10-10-88-------------|
E|--55556666555333----55556666555-8--6~-x4-555555666666-8--8--66-x4----------|

Bridge:x6 (Solo 2 Rhytm)

e|---------------------------------------------------------------------------|
B|---------------------------------------------------------------------------|
G|---------------------------------------------------------------------------|
D|---------------------------------------------------------------------------|
A|-7810-6-6-6-6----7810-874--------------------------------------------------|
E|-568--4-4-4-4----568--652--------------------------------------------------|

Solo 2: i am not sure if it's right.
                 (..................Picking Fucking Fast.............)
e|----------------9h10h12-------------------------------------9h10h12--------|
B|--5-6-7-888888----------9h10h12----------------------9h10h12---------------|
G|--------------------------------9h10h12-------9h10h12----------------------|
D|---------------------------------------9h10h12-----------------------------|
A|---------------------------------------------------------------------------|
E|---------------------------------------------------------------------------|
                                    ( .........Fast Picking........)
e|-5-6-9-10-12-13-15-13-12-10-9\10--9h10h12-9h10h12-9h10h12-9h10h12-12-10-9~-|
B|---------------------------------------------------------------------------|
G|---------------------------------------------------------------------------|
D|---------------------------------------------------------------------------|
A|---------------------------------------------------------------------------|
E|---------------------------------------------------------------------------|

Riff1:x3
Riff2:x2
Riff3:x16

END


| /  slide up
| \  slide down
| h  hammer-on
| p  pull-off
| ~  vibrato
| +  harmonic
| x  Mute note
================================================================
Добавлено: 05.08.2013
Другие материалы по этой песне:

Страница создана 01.04.2012
http://primanota.ru/the-kovenant/jihad-chords.htm
Привет, Гость.
Предлагаем пройти революционный курс по гитаре.
Подарок от PrimaNota.Ru, забирай!