PrimaNota.ru - самый крупный в мире бесплатный архив песенных текстов, аккордов, табулатур и нот


The Kooks - Unnamed Song - аккорды и текст, видео

Регистрация Запомнить меня
Войти через:  Facebook Google Twitter Vk Yandex Mail.ru

The Kooks - Unnamed Song - аккорды и текст, видео

Печатать
Просмотров: 128
Unnamed Song
The Kooks
-----------------------------------------------------------------------------
                             Unnamed Song - The Kooks
-----------------------------------------------------------------------------
Tabbed by: Connor McLeod – bxr_con
Email: sexy_conzy_man@hotmail.com

Tuning: Standard (EADGBe)

My First tab, some of the strum patterns and variations you'll have to figure out yourself
but you'll get the gist with this. Please rate and comment :)
Based on his performance : http://www.youtube.com/watch?v=ylfJaK1O0yw


INTRO
v: down strum
^: up strum
p: palm mute


    v ^ vp ^  ^ v       v ^ vp ^  ^ v
e|--x-x-x--x--x-x-------7-7-7--7--7-7-------|
B|--2-2-2--2--3-5-------7-7-7--7--9-10------|
G|--2-2-2--2--2-2-------7-7-7--7--7-7-------|
D|--2-2-2--2--2-2—--x2--9-9-9--9--9-9---x2--|
A|--0-0-0--0--0-0-------7-7-7--7--7-7-------|
E|--x-x-x--x--x-x-------x-x-x--x--x-x-------|

    v ^ vp ^  ^ v       v ^ vp ^  ^ v     You figure it out...
e|--x-x-x--x--x-x-------7-7-7--7--7-7-----7-7-7-7-7-7-7-7-7-7-7-7-|
B|--2-2-2--2--3-5-------7-7-7--7--9-10----7-7-7-7-7-7-7-7-7-7-7-7-|
G|--2-2-2--2--2-2-------7-7-7--7--7-7-----7-7-7-7-7-7-7-7-7-7-7-7-|
D|--2-2-2--2--2-2—--x2--9-9-9--9--9-9-----9-9-9-9-9-9-9-9-9-9-9-9-|
A|--0-0-0--0--0-0-------7-7-7--7--7-7-----7-7-7-7-7-7-7-7-7-7-7-7-|
E|--x-x-x--x--x-x-------x-x-x--x--x-x-----x-x-x-x-x-x—x-x-x-x-x-x-|

VERSE 1


A  : x0222x
E7sus2  : x79777
E7sus2* : x79797      = E (follows same strum pattern as intro)
E7sus2**: x797107


A                                E              E
I was afraid because Mary-Louise was in town,

A                                             E             E7sus2
She could suck all the air around herself and sell it on,

CHORUS

Bm : x24432
Bm*: x04432
E  : 02210x
E* : 02020x
E**: 02010x

    Bm              Bm*                        E     E*
When she's in town, the birds storm out from their trees,
    Bm              Bm*                    E     E**
When she's in town, the birds come out for fear of missing out,

Intro x2 (take off one strum at the end of the E7sus2)

VERSE 2

A                                     E               E
Oh and I found her, she was all about hanging out,
A                                   E               E7sus2
She's a nasty piece of work, but we figured out,

CHORUS
     Bm                  Bm*          E   E* E
Still when she's in town hours slip away,
     Bm               Bm*                  E (lots of down strums)
When she's in town, the birds come out for fear of missing out,


INTRO x2 (with the dada da da da's)

CHORUS
        Bm        Bm*   E
When she's about, hours disappear,
      Bm           Bm*                 E7sus2
When she's in town, birds come out for fear of missing out.

INTRO x1 (dada da's)

OUTRO (single strum)
~ =let ring
Using E7sus2 chords:

E**  E*  E  E*  E**  E  A~


Hope this helped! If you have problems feel free to pm me. Also please rate and comment :)
Добавлено: 07.05.2012
Другие материалы по этой песне:
  • Аккорды и текст

Страница создана 07.05.2012
http://primanota.ru/the-kooks/unnamed-song-chords.htm
Привет, Гость.
Предлагаем пройти революционный курс по гитаре.
Подарок от PrimaNota.Ru, забирай!