PrimaNota.ru - самый крупный в мире бесплатный архив песенных текстов, аккордов, табулатур и нот


The Kooks - Inside In Inside Out - аккорды и текст, таба, видео

Регистрация Запомнить меня
Войти через:  Facebook Google Twitter Vk Yandex Mail.ru

The Kooks - Inside In Inside Out - аккорды и текст, таба, видео

Печатать
Просмотров: 172
Inside In Inside Out
The Kooks
Band - The Kooks
Album - Inside in/Inside out

track list
1. Seaside
2. see the world
3. sofa song
4. eddies gun
5. ooh la
6. you dont love me
7. she moves in her own way
8. matchbox
9. naive
10. i want you
11. if only
12. jackie big tits
13. time awaits
14. got no love

i often wondered and im sure most of u have too where can we get a tab that shows 
all the songs off of
the kooks album inside in/inside out so i have decided to select the tabs that i 
think sound the best 
from the album and put them all together.  i will write the names of all the 
tabbers tabs i useed at 
end of the tab becaus ethey deserve to be thanked

this is a long tab btw

all comments and corrections welcome.



===Seaside===

Standard Tuning: EADGBE

Capo 1st fret (chords relative to capo)

Play Dm, C, G and G/F as open chords.



Dm                          F
   Do you want to go to the seaside?
    Bb                     C
I'm not trying to say that everybody wants to 
Dm                        F
go. I fell in love at the seaside
  Bb                    C                  G         G/F      
I handled my charm with time and slight of hand


Dm                          F
   Do you want to go to the seaside?
    Bb                     C
I'm not trying to say that everybody wants to 
Dm                        F
go. I fell in love at the seaside
    Bb                     C                  G                     G/F
She handled her charm with time and slight of hand, hand, hand..

Dm                           Bb           C
      But i'm just trying to love you any  kind of way
Dm                          Bb                      C      G            G/F  
      But i find it hard to love you girl when your  far awa-a-ay, away


Dm                          F
   Do you want to go to the seaside?
    Bb                      C
I'm not trying to sing that everybody wants to 
Dm                            F      Bb       F      Bb       F
go. But I fell in love on the seaside, on the seaside, on the seaside ...



===See The World===

CHORDS USED: 
    G  A  Bm D  E  G*  F#m Bm* F7 
e|--3--5--7--5--7--10--9---2---8-------------|| 
B|--3--5--7--7--9--12--10--3---10------------|| 
G|--4--6--7--7--9--12--11--4---x-------------|| 
D|--5--7--9--7--9--12--11--4---10------------|| 
A|--5--7--9--5--7--10--9---2---8-------------|| 
E|--3--5--7--5--7?-x---x---x-----------------|| 
 
-the second Bm chord in the Verse is not a simple minor chord; it is a Bm variation of 
sort, but I cannot for the life of me figure it out! I think perhaps it could be; 
(low to high), but I don?t think it sounds quite right. I?ve marked it on the tab as  
Can anybody figure it out? Please let me know if you can crack it. 
 
 
INTRO 
    G                                    A   G     A   Bm    A   Bm    A 
e|--------------------------33333333-3-x-55x-3-3-x-55x-7-7-x-55x-7-7-x-55x-| 
B|-3-3-33333-3-33333-3-3333-33333333-3-x-55x-3-3-x-55x-7-7-x-55x-7-7-x-55x-| 
G|--------------------------44444444-4-x-66x-4-4-x-66x-7-7-x-66x-7-7-x-66x-| 
D|---------------------------------5-5-x-77x-5-5-x-77x-9-9-x-77x-9-9-x-77x-| 
A|-------------------------------------------------------------------------| 
E|-------------------------------------------------------------------------| 
   D D DDDDD D DDDDD D DDDD DDDDDDDD D   UD  D D   UD  D D   UD  D D   UD 
 
 
Chorus (same as last part of the intro, but with bass strings included) 
    G     A      G   A     Bm   A     Bm  A 
e|----3-x-55x----3-x-55x----7-x-55x---7-x-55x-------|| 
B|----3-x-55x----3-x-55x----7-x-55x---7-x-55x-------|| 
G|----4-x-66x----4-x-66x----7-x-66x---7-x-66x-------|| 
D|----5-x-77x----5-x-77x----9-x-77x---9-x-77x-------|| 
A|--5----------5----------9----------9--------------|| 
E|--3----------3----------7----------7--------------|| 
    D D   UD   D D   UD   D D   UD   D D  UD 
 
VERSE (strum) 
    A       G                 Bm       D                G 
e|- 5-------3-----------------7--------5----------------3-----------------|| 
B|--5-------3-----------------7--------7----------------3-----------------|| 
G|--6-------4-----------------7--------7----------------4-----------------|| 
D|--7-------5-----------------9--------7----------------5-----------------|| 
A|--7-------5-----------------9--------5----------------5-----------------|| 
E|--5-------3-----------------7--------5----------------3-----------------|| 
        I remember?   used to sing?   ?poems in your bedsit,  finding time 
 
                   E             ?Bm?                 G            Bm 
e|-----------------7--------------7-------------------3------------7-----| 
B|-----------------9--------------7-------------------3------------7-----| 
G|-----------------9--------------7-------------------4------------7-----| 
D|-----------------9--------------9-------------------5------------9-----| 
A|-----------------7--------------9-------------------5------------9-----| 
E|-----------------7--------------7------ ------------3------------7-----| 
   to be the passenger?   ?saw me leave?   ?sailing away? 
?you know 
 
                   G 
e|-----------------3-------------------------------------------------| 
B|-----------------3-------------------------------------------------| 
G|-----------------4---- repeat G and Bm section until end of verse -| 
D|-----------------5-------------------------------------------------| 
A|-----------------5-------------------------------------------------| 
E|-----------------3-------------------------------------------------| 
  you never come away? 
 
SOLO (played over the Chorus chords) 
e|------10-------------------------------------------------------------|| 
B|--12------12--10----8p7-----------12p10------------------------------|| 
G|------------------------9p7?-9/11-------11/9--7-9b11-----------------|| 
D|---------------------------------------------------------------------|| 
A|---------------------------------------------------------------------|| 
E|---------------------------------------------------------------------|| 
 
-repeat Chorus once through, with different lyrics. 
 
-repeat VERSE, with this extra chord before the E. Also; keep playing the 
?Bm? chord for a bar longer than in the first verse. 
            F7     E 
e|----------8--8---77x-7-7x----|| 
B|----------10-10--99x-9-9x----|| 
G|----------x--x---99x-9-9x----|| 
D|----------10-10--99x-9-9x----|| 
A|----------8--8---77x-7-7x----|| 
E|-----------------------------|| 
  ?take it back,    wrap your life around? 
 
OUTRO (strum) 
    G*                      F#m  Bm* 
e|--10----------------------9----2--|| 
B|--12----------------------10---3--|| 
G|--12----------------------11---4--|| repeat with ad-lib vocals 
D|--12----------------------11---4--|| 
A|--10----------------------9----2--|| 
E|--x-----------------------x----x--|| 
    Do you want to see the world? 
 
End on Bm* 




===Sofa Song===


Standard Tuning

Chords:
----------------------------
G#7sus4    | 4,6,4,6,4,4
E          | 0,2,2,1,x,0
E(v2)      | x,7,9,9,9,7
A          | 5,7,7,6,5,5
C#m        | x,4,6,6,5,4
F#         | 2,4,4,3,2,2
D#m        | x,6,8,8,7,6
D#m(v2)    | x,6,8,x,7,x
B7M        | x,2,4,3,4,2
G#m        | x,11,13,x,12,x
G#m7       | x,11,13,x,12,14
F#(v2)     | x,9,11,x,11,x
C#7        | x,4,6,4,6,4
-----------------------------

Intro - Ab7sus4, E x3
        C#m, F# x1

-----------------------------

Verse -

Ab7sus4       B7M  
     The city freezes for
E(v2)                 B7M         Ebm
     I just realised I don't like you
Ab7sus4     B7M  
     Me and my girl
E(v2)          B7M          Ebm
     Are going out for some air
Ab7sus4        B7M  
     And I will do my best
E(v2)            B7M        Ebm
     Just to get under her dress
Ab7sus4            B7M  
     And catch you out if I can
E                 B7M        Ebm
     On the other side of my sofa

------------------------------

Chorus -

Ab7sus4       B7M                      F#   C#7
                    Won't you come on over

                    At the side of my sofa
Ab7sus4       B7M                         F#   C#7
                    Oh won't you come on over

------------------------------

Solo (i know this is not 100% correct, i improvised on some bits)

e|---------------9~~~~~~~~----------------------------|
B|--4--7--9-7-9--11b12~~~~--9---7h9p7-4-7-4-2-0-2/4---|
G|----------------------------------------------------|
D|----------------------------------------------------|
A|----------------------------------------------------|
E|----------------------------------------------------|

e|----------------------------------------------------|
B|--5p4-----------------------------------------------|
G|------4-6-4---4-------4--4-4-4-4/6-6-6-6/8--8h9p8---|
D|------------6---6-4-6----6-6-6-6/8-8-8-8/9----------|
A|----------------------------------------------------|
E|----------------------------------------------------|

2nd Verse -

Ab7sus4       B7M  
     The city heated up
E(v2)              B7M           Ebm
     It got blurry cause I'd had enough
Ab7sus4      B7M  
     And he tried to take your soul
E                           B7M          Ebm
     But didn't realise you keep it in a different hole

-------------------------------

2nd Chorus -

Ab7sus4       B7M                      E
                    Won't you come on over
                           B7M        Ebm
                    At the side of my sofa
Ab7sus4       B7M                         E    B7M   Ebm
                    Oh won't you come on over

--------------------------------

Bridge: (played raggae style until 'E' chord)
Abm7   Abm              Ebm(v2)
        So here he comes,  a man with a

        loaded gun, I don't know if he
Abm                   F#(v2)
        Wants my soul or my cash flow
       Abm     Abm7   Abm   Abm7
        So here he comes, a man with a
F#(v2)
        A loaded gun I don't know if he
       Abm     Abm7      Ebm(v2)      E     A
        Wants my girl's heart or her pearls

--------------------------------

Outro -
                      Ab7sus4  E
I s'pose I don't know
                      Ab7sus4  E
I s'pose I don't know
                      Ab7sus4  E
I s'pose I don't know
                 C#m     F#
I s'pose I don't knoooooow
                 Ab7sus4
I s'pose I don't know




===Eddie's Gun===

Intro:
AAAAAAAAAAAAAAAAAAAAAAAAAAAAAAAA
A Bm A Bm A Bm A Bm

Verse 1:
A                Bm        C#m       A Bm A Bm
Did you see the way she looked at me? 
A                Bm        C#m       A Bm A Bm
Honey bee got two lies and she's got me 

Chorus:
F#         E         Bm
I tried to love her back 
           F#          E       Bm
And then I shrunk back into my wrap 
           D
And in the barrel of my gun 
  C#m              Bm      A Bm A Bm
I hope I'm not the only one 

Verse 2:
A             Bm       C#m       A Bm A Bm
Yes I see the way she looked at me 
   A                      Bm      C#m       A Bm A Bm
Oh shes got an eye for an awkward guy like me 

Chorus:
F#         E         Bm
I tried to love her back (she's just a girl) 
           F#          E       Bm
And then I shrunk back into my wrap (she's just a girl) 
           D
And in the barrel of my gun 
  C#m              Bm      A Bm A Bm
I hope I'm not the only one  
           D
And in the barrel of my gun 
  C#m              Bm      AAAAAAAAAAAAAAAAAAAAAAAAAAAAAAAA
I hope I'm not the only one 

Solo:
'Havent tabbed solo yet, will submit Eddie's Gun Solo'
Yeah 
Do do do do do do 

Chorus:
F#         E         Bm
I tried to love her back (she's just a girl) 
           F#          E       Bm
And then I shrunk back into my wrap (she's just a girl) 
           D
And in the barrel of my gun 
  C#m              Bm      A Bm A Bm
I hope I'm not the only one  
           D
And in the barrel of my gun 
  C#m              Bm      A
I hope I'm not the only one  

'To finish just play around with A'



===Ooh La===

- - - -  CAPO 1ST FRET - - - -

   

          Am
In their eyes is the place that you finally discovered
          F
That you love it here, you've got to stay
        Dm
On the bottom of the rock, an island
                       Am              
On which you find you love it when you twitch
                            F
You feel that itch in you pettycoat
               Dm   
Your pretty pretty pettycoat



           Am           
Then you smiled, he got wild
                                     F
You didn't understand that there's money to be made
                       Dm  
Beauty is a card that must get played
      G
By organisation


   Am   F                   G           Dm
And ooh la, she was such a good girl to me
  F     Am                  G                 Dm
And ooh la, the world just chewed her up, and spat her out
  F     Am                  G           Dm
And ooh la, she was such a good girl to me
F       Am                  G           Dm
And ooh la, the world just chewed her up, and spat her out



The world can be a very big place

So be yourself don't get out of place

Love your man and love him twice

Go to Hollywood and pay the price

Oh go to Hollywood



And don't be a star, it's such a drag

Take care of yourself, don't begin to lag

It's a hard life to live, so live it well

I'll be your friend and not in pretend

I know you girl

In all situations


CHORUS
Am  F  G Dm   F  Am  G Dm   F  Am  G   Dm


(play the following to the same chord sequence as the verse: 
            Am  F  Dm  Am  Am F Dm G )

Pretty pretty pretty pretty pretty pretty pretty pretty pretty
Pretty pretty pretty pretty pretty pretty pretty pettycoat
Pretty pretty pretty pretty pretty pretty pretty pretty pretty
Pretty pretty pretty pretty pretty pretty pretty pettycoat
In all situations

CHORUS
Am  F  G Dm   F  Am  G Dm   F  Am  G   Dm  F  Am  Dm



===You Don't Love Me===

Verse 1
        Am                             Dm7           G
 1,2,3  you dont love me the way that,   i love you

Am                                    Dm7                   G
cos if you did girl you would not do,   those things you do

Am                                     Dm7               G
you kurn my heart just to see if,           i will rise

Am                Dm7                   G
above your anger,   and above your lies

C                    G                            Bm
and all i see you,       is when your not so busy

G                    E
oh youre not so busy

Bm                                Em7             A
cos you dont love me the way that,     i love you

Bm                                 Em7                        A
cos if you did girl you would not,     do those things you do

Bm                                       Em7                 A
you turned my life round around and for that,       i am glad

Bm                     Em7                         A
Oh however much i love you this love is getting bad

Bm                                 G*
and oh my darling you could choose    the words that only you could use

===She moves in her own way===

Verse 1

G                  C                    Am
So at my show on Monday I was thinking someday
                 Bm     D      G
You'd be on your way to better things
                    C                         Am
It's not about your make up or how you try to shape up
          Bm       D    G      C Am                 Bm D
To these ties and paper dreams. Paper dreams honey.


Verse 2
 
G                    C                         Am
So now you pour your heart out telling me your far out
                    Bm   D             G
You're not about to lie down for your cause
              C
But you don't pull my strings
          Am          Bm           D      G
Cos I'm a better man moving on to better things.


Chorus

G   D           Am
But oohh I love her because 
   Bm        D       Em
She moves in her own way
    C             Am
But oohh she came to my show
        Bm    D       G
Just to hear about my day.



Verse 1 REPEAT

Verse 2 REPEAT


CHORUS


BRIDGE X 2

Em    Bm            D         C
Yes I wish that we never made it 
G               D
Through all the summers
Em          Bm   D          C
We kept the moon instead of kicking us
G                D
Back down to the suburbs


CHORUS X 2



===Matchbox===

CHORDS USED
    Eb7  B7M    Bb7sus4  Ebm7  Ab7sus4   Bb7  F#  C  Abm7  Ebm
e|--6----2------6--------9-----4---------6----9---4--11----11--||
B|--7----4------6--------7-----4---------6----11--6--12----11--||
G|--6----3------8--------6-----6---------7----11--x--11----11--||
D|--8----4------6--------8-----4---------6----11--6--13----13--||
A|--6----2------8--------6-----6---------8----9---4--11----13--||
E|--x----x-----(6)-------x----(4)-------(6)--------------------||

-times are indicated in brackets eg (0:00)

INTRO/FIGURE 1. NB
Добавлено: 25.12.2013
Другие материалы по этой песне:
  • Аккорды и текст

Страница создана 15.07.2013
http://primanota.ru/the-kooks/inside-in-inside-out-chords.htm
Привет, Гость.
Предлагаем пройти революционный курс по гитаре.
Подарок от PrimaNota.Ru, забирай!