PrimaNota.ru - самый крупный в мире бесплатный архив песенных текстов, аккордов, табулатур и нот


The King Blues - Save The World Get The Girl - аккорды и текст, таба, видео

Регистрация Запомнить меня
Войти через:  Facebook Google Twitter Vk Yandex Mail.ru

The King Blues - Save The World Get The Girl - аккорды и текст, таба, видео

Печатать
Просмотров: 116
Save The World Get The Girl
The King Blues
King Blues - Save The World, Get The Girl.
sfc

F |-x-8-10-10-10-8
Dm|-x-5-7-7-6-5
C |-8-10-10-9-8-8
Bb|-6-8-8-7-6-6
A |-5-7-7-6-5-5


INTRO
E-5~--------|-5~--------|-5~--------|-5~--------|
B---6~------|---6~------|---6~------|---6~------|
G-----5~----|-----5~----|-----5~----|-----5~----|
D-----------|-----------|-----------|-----------|
A-----------|-----------|-----------|-----------|
E-----------|-----------|-----------|-----------|     x1


               F
From the fiery pits of Camden Town, 
      Dm
To Elephant & Castle underground,
      C
There ain
Добавлено: 23.01.2014
Другие материалы по этой песне:
  • Аккорды и текст

Страница создана 17.08.2013
http://primanota.ru/the-king-blues/save-the-world-get-the-girl-chords.htm
Привет, Гость.
Предлагаем пройти революционный курс по гитаре.
Подарок от PrimaNota.Ru, забирай!