PrimaNota.ru - самый крупный в мире бесплатный архив песенных текстов, аккордов, табулатур и нот


The Killing Tree - We Have Awakened Vengeance - таба, видео

Регистрация Запомнить меня
Войти через:  Facebook Google Twitter Vk Yandex Mail.ru

The Killing Tree - We Have Awakened Vengeance - таба, видео

Печатать
Просмотров: 78
-------------------------------------------------------------------------------
                             We Have Awakened (Vengeance)
-------------------------------------------------------------------------------
Tabbed by: Ethan
Email: boredomk1lls@hotmail.com

Before you guys go on I just wanna go ahead and say that this tab is
INCOMPLETE. The chorus is a real bitch to figure out, so it's not in here.
If anyone has any clue to how to play it, send me a message and I'll add it
on along with some credit. Also most of the outro isn't here either because
it's pretty much the same as the verse but the solo is here, so yeah.

Some things to note:

| /   slide up
| \   slide down
| h   hammer-on
| p   pull-off
| ~   vibrato
| +   harmonic
| .   palm mute
| b   Bend
| x   strum as many times as you think is appropriate
|(12x)play note 12 times or whatever number is next to x
| pb  Pre-bend
| br  Bend release
| pbr Pre-bend release
| brb Bend release bend

The numbers in brackets are there just so it's easier to read and to avoid
confusion, so you're playing on the 12th fret instead of playing the first
two frets, if that makes any sense at all.

Tuning: Drop D

Intro
e|---------------------------------------------------------------------------|
B|---------------------------------------------------------------------------|
G|---------------------------------------------------------------------------|
D|--0---0000-10-12-0-6-5-0-6--6---3---3333-10-12-0-6-5-0-8--8----------------|
A|---------------------------------------------------------------------------|
D|---------------------------------------------------------------------------|

e|---------------------------------------------------------------------------|
B|---------------------------------------------------------------------------|
G|---------------------------------------------------------------------------|
D|---3---33--3---33---6508--8------------------------------------------------|
A|---3---33--3---33---6508--8------------------------------------------------|
D|---3---33--3---33---6508--8------------------------------------------------|        
         ..      ..
e|---------------------------------------------------------------------------|
B|---------------------------------------------------------------------------|
G|---------------------------------------------------------------------------|
D|---0---00--[10][11][12]06506---66------------------------------------------|
A|---0---00--[10][11][12]06506---66------------------------------------------|
D|---0---00--[10][11][12]06506---66------------------------------------------|
         ..                      ..
e|---------------------------------------------------------------------------|
B|---------------------------------------------------------------------------|
G|---------------------------------------------------------------------------|
D|---0---00--[10][11][12]06506---6-------------------------------------------|
A|---0---00--[10][11][12]06506---6-------------------------------------------|
D|---0---00--[10][11][12]06506---6-------------------------------------------|
         ..
e|---------------------------------------------------------------------------|
B|---------------------------------------------------------------------------|
G|---------------------------------------------------------------------------|
D|---0---00--[10][11][12]06506---66------------------------------------------|
A|---0---00--[10][11][12]06506---66------------------------------------------|
D|---0---00--[10][11][12]06506---66------------------------------------------|
         ..                      ..
Repeat the last four tabs or blocks or whatever once, then play this one more time:
e|---------------------------------------------------------------------------|
B|---------------------------------------------------------------------------|
G|---------------------------------------------------------------------------|
D|---3---33--3---33---6508---------------------------------------------------|
A|---3---33--3---33---6508---------------------------------------------------|
D|---3---33--3---33---6508---------------------------------------------------|        
         ..     ..
Verse
e|---------------------------------------------------------------------------|
B|---------------------------------------------------------------------------|
G|---------------------------------------------------------------------------|
D|---0---00--0---00--6506--6---3---33--3---33--6538--8-----------------------|
A|---0---00--0---00--6506--6---3---33--3---33--6538--8-----------------------|
D|---0---00--0---00--6506--6---3---33--3---33--6538--8-----------------------|
         ..      ..                ..      ..  
Repeat four times

e|---------------------------------------------------------------------------|
B|---------------------------------------------------------------------------|
G|---------------------------------------------------------------------------|
D|--10--1010101010101010-----------------------------------------------------|
A|--10--1010101010101010-----------------------------------------------------|
D|--10--1010101010101010-----------------------------------------------------|

-CHORUS SKIPPED-

e|---------------------------------------------------------------------------|
B|---------------------------------------------------------------------------|
G|---------9/10--------9/10----------------------7-9-10-9--------------------|
D|---0--0--------7--7--------5--55--8--88--7---7----------10-----------------|
A|---0--0--7/8---7--7--7/8---5--55--8--88--7---------------------------------|
D|---0--0--------7--7--------5--55--8--88--7---------------------------------|

e|---------------------------------------------------------------------------|
B|---------------------------------------------------------------------------|
G|---------9/10--------9/10--------------------10-8--------------------------|
D|---0--0--------7--7--------5--55--8--88--7--------10-9-10-9----------------|
A|---0--0--7/8---7--7--7/8---5--55--8--88--7---------------------------------|
D|---0--0--------7--7--------5--55--8--88--7---------------------------------|

e|---------------------------------------------------------------------------|
B|---------------------------------------------------------------------------|
G|---------------------------------------------------------------------------|
D|---0---00--0---00--6506--6---3---33--3---33--6530--------------------------|
A|---0---00--0---00--6506--6---3---33--3---33--6530--------------------------|
D|---0---00--0---00--6506--6---3---33--3---33--6530--------------------------|
         ..      ..                ..      ..  

2nd Verse
e|---------------------------------------------------------------------------|
B|---------------------------------------------------------------------------|
G|---------------------------------------------------------------------------|
D|---0---00--0---00--6506--6---3---33--3---33--6538--8-----------------------|
A|---0---00--0---00--6506--6---3---33--3---33--6538--8-----------------------|
D|---0---00--0---00--6506--6---3---33--3---33--6538--8-----------------------|
         ..      ..                ..      ..  
Repeat five-ish times

e|---------------------------10x---8x----------------------------------------|
B|---------------------------------------------------------------------------|
G|---------------------------------------------------------------------------|
D|---0-----------------------------------------------------------------------|
A|---0-----------------------------------------------------------------------|
D|---0-----------------------------------------------------------------------|
(Again, x's mean I have no idea how many times you strum it so just
strum whatever amount you think is appropriate or necessary.)

Solo
e|--10(15x)-13(15x)--15---15-15--13-12-13--13--13-12-10--10-10-10-12-12-12-12|
B|----------16(15x)----------------------------------------------------------|
G|---------------------------------------------------------------------------|
D|---------------------------------------------------------------------------|
A|---------------------------------------------------------------------------|
D|---------------------------------------------------------------------------|

e|--13-13-15--13-12--10------------------------------------------------------|
B|---------------------------------------------------------------------------|
G|---------------------------------------------------------------------------|
D|---------------------------------------------------------------------------|
A|---------------------------------------------------------------------------|
D|---------------------------------------------------------------------------|
Добавлено: 18.11.2013
Другие материалы по этой песне:
  • Аккорды и текст

Страница создана 18.11.2013
http://primanota.ru/the-killing-tree/we-have-awakened-vengeance-chords.htm
Привет, Гость.
Предлагаем пройти революционный курс по гитаре.
Подарок от PrimaNota.Ru, забирай!