PrimaNota.ru - самый крупный в мире бесплатный архив песенных текстов, аккордов, табулатур и нот


The Killing Tree - Everything You Had Is Gone - таба, видео

Регистрация Запомнить меня
Войти через:  Facebook Google Twitter Vk Yandex Mail.ru

The Killing Tree - Everything You Had Is Gone - таба, видео

Печатать
Просмотров: 67
-------------------------------------------------------------------------------
             Everything You Had Is Gone - The Killing Tree
-------------------------------------------------------------------------------
Tabbed by: WildGrim
E-mail: grim-117@hotmail.com

Tuning: Drop D

-- Intro --
Guitar one - 4x
e|--------------------------------------------------------|
B|--------------------------------------------------------|
G|-9----------------------9--10-9-------------------------|
D|-8--10-12---------------8--8--8--12-10-12---------------|
A|-8--8--0----------------8--8--8--8--8--0----------------|
D|-8--8--0--000--000--000-8--8--8--8--8--0--0--0--0--0--0-|
            ***  ***  ***                   *  *  *  *  *
Guitar two - 4x
e|--------------------------------------------------------|
B|--------------------------------------------------------|
G|-9----------------------9--10-9-------------------------|
D|-8--10-0----------------8--8--8--12-10-0----------------|
A|-8--8--0----------------8--8--8--8--8--0----------------|
D|-8--8--0--000--000--000-8--8--8--8--8--0--0--0--0--0--0-|
            ***  ***  ***                   *  *  *  *  *

Guitar one and two - 2x
e|-------------------------------------------------|
B|-------------------------8-8-8-8-8-8-8-8-8-8-8-8-|
G|-7-7-7-7-7-7-7-7-7-7-7-7-8-8-8-8-8-8-8-8-8-8-8-8-|
D|-8-8-8-8-8-8-8-8-8-8-8-8-------------------------|
A|-6-6-6-6-6-6-6-6-6-6-6-6-6-6-6-6-6-6-6-6-6-6-6-6-|
D|-------------------------------------------------|

Guitar one - 2x
e|--------------------------------------------------------|
B|--------------------------------------------------------|
G|-9----------------------9--10-9-------------------------|
D|-8--10-12---------------8--8--8--12-10-12---------------|
A|-8--8--0----------------8--8--8--8--8--0----------------|
D|-8--8--0--000--000--000-8--8--8--8--8--0--0--0--0--0--0-|
            ***  ***  ***                   *  *  *  *  *
Guitar two - 4x
e|--------------------------------------------------------|
B|--------------------------------------------------------|
G|-9----------------------9--10-9-------------------------|
D|-8--10-0----------------8--8--8--12-10-0----------------|
A|-8--8--0----------------8--8--8--8--8--0----------------|
D|-8--8--0--000--000--000-8--8--8--8--8--0--0--0--0--0--0-|
            ***  ***  ***                   *  *  *  *  *

After the second time, guitar one plays this 2x:
e|-------8--------------------------------8---------------|
B|-5--6-----111--111--111-5--5--5-6--6--6---1--1--1--1--1-|
G|--------------------------------------------------------|
D|--------------------------------------------------------|
A|--------------------------------------------------------|
D|--------------------------------------------------------|

Guitar one and two - 4x
e|-------------------------------------------------|
B|-------------------------8-8-8-8-8-8-8-8-8-8-8-8-|
G|-7-7-7-7-7-7-7-7-7-7-7-7-8-8-8-8-8-8-8-8-8-8-8-8-|
D|-8-8-8-8-8-8-8-8-8-8-8-8-------------------------|
A|-6-6-6-6-6-6-6-6-6-6-6-6-6-6-6-6-6-6-6-6-6-6-6-6-|
D|-------------------------------------------------|

-- Verse --
Guitar one and two - 4x                                End on this
e|-------------------------------------------------------|-----|
B|-------------------------------------------------------|-----|
G|-3-----------------------3-3---------------------------|--6--|
D|-3-----------------------3-3---------------------------|--6--|
A|-1-----------------------1-1-------------------------3-|--4--|
D|---0-0-0-0-0-0-0-0-0-0-0-----0-0-0-0-0-0-0-0-1-0-3-0---|-----|
     * * * * * * * * * * *     * * * * * * *

-- Chorus --
Guitar one - x5
e|----------------------------------------|
B|-6-66-6-6--6-66-6-6--6-66-6-6-----------|
G|-7-77-7-7--7-77-7-7--7-77-7-7--5-55-5-5-|
D|----------------------------------------|
A|-5-55-5-5--5-55-5-5--5-55-5-5--3-33-3-3-|
D|----------------------------------------|

Guitar two - x8
e|----------------------------------------|
B|----------------------------------------|
G|---------------------3-33-333--3-33-333-|
D|-0-00-000--1-11-111--3-33-333--3-33-333-|
A|-0-00-000--1-11-111--1-11-111--1-11-111-|
D|-0-00-000--1-11-111---------------------|

Guitar one - Alternate between these x2
e|----|    |----|    |----|
B|----| x8 |----| x8 |----| x16
G|-10-|    |-12-|    |-10-|
D|----|    |----|    |----|
A|-8--|    |-10-|    |-8--|
D|----|    |----|    |----|

e|----|    |----|    |----|    |----|
B|----| x8 |----| x8 |----| x3 |----| x12
G|-14-|    |-12-|    |-7--|    |-10-|
D|----|    |----|    |----|    |----|
A|-12-|    |-10-|    |-5--|    |-8--|
D|----|    |----|    |----|    |----|

-- Post Chorus --
Guitar one - 4x
e|-----------------------------------------------------------------------------------|
B|-----------------------------------------------------------------------------------|
G|-12-------12-------12-------12-------12-------10-------10-------10-8--8-8-8-8-8-8--|
D|----9--10----9--10----9--10----9--10----9--10----9--10----9--10----8--8-8-8-8-8-8--|
A|-------------------------------------------------------------------6--6-6-6-6-6-6--|
D|-----------------------------------------------------------------------------------|

Guitar two - 4x
e|-----------------------------------------------------------------------------------|
B|-----------------------------------------------------------------------------------|
G|-12--12-12-12-12-12-12-12-12-12-12-12--10--10-10-10-10-10-10-10-10-8--8-8-8-8-8-8--|
D|-12--12-12-12-12-12-12-12-12-12-12-12--10--10-10-10-10-10-10-10-10-8--8-8-8-8-8-8--|
A|-10--10-10-10-10-10-10-10-10-10-10-10--8---8--8--8--8--8--8--8--8--6--6-6-6-6-6-6--|
D|-----------------------------------------------------------------------------------|

-- Verse --
Play the same thing as before, but this time, end on this:
e|---|
B|---|
G|---|
D|-0-|
A|-0-|
D|-0-|

-- Bridge --
Both guitars - x4             End on this
e|-------------------------------|---|
B|-------------------------------|---|
G|-------------------------3-3-3-|-6-|
D|-0-0-0-0-0---------------3-3-3-|-6-|
A|-0-0-0-0-0---------------1-1-1-|-4-|
D|-0-0-0-0-0-0-0-1-0-0-3-0-------|---|

Guitar one - x4
e|-----------------------------------------------------------------|
B|-6---6---6---6---6---6---6---6---6---6---6---6---6---6---6---6---|
G|---7---7---7---7---7---7---7---7---7---7---7---7---7---7---7---7-|
D|-----------------------------------------------------------------|
A|-----------------------------------------------------------------|
D|-----------------------------------------------------------------|
   * * * * * * * * * * * * * * * * * * * * * * * * * * * * * * * *

Guitar two - x6
e|-----------------------------------------------------------------|
B|-----------------------------------------------------------------|
G|-------------------------------------------3~--------------------|
D|-------------------------------------------3~--------------------|
A|-------------------------------------------1~--------------------|
D|-0-0---------------------0-0-0-0-0-------------------------------|
   * *                     * * * * *

Guitar one - x2
e|-----------------------------------------------------------------|
B|-6---6---6---6---6---6---6---5---6---6---6---6---8---6---5---6---|
G|---7---7---7---7---7---7---7---7---7---7---7---7---7---7---7---7-|
D|-----------------------------------------------------------------|
A|-----------------------------------------------------------------|
D|-----------------------------------------------------------------|

Then this x2
e|-5---------------------------------------------------------------|
B|-----8---6---5---6---8---6---5---6---6---6---6---6---6---6---6---|
G|---7---7---7---7---7---7---7---7---7---7---7---7---7---7---7---7-|
D|-----------------------------------------------------------------|
A|-----------------------------------------------------------------|
D|-----------------------------------------------------------------|

Guitar two - x2
e|-------------|
B|-------------|
G|----------3~-|
D|--0~--1~--3~-|
A|--0~--1~--1~-|
D|--0~--1~-----|

-- Chorus --
Guitar one - x4
e|----------------------------------------|
B|-6-66-6-6--6-66-6-6--6-66-6-6-----------|
G|-7-77-7-7--7-77-7-7--7-77-7-7--5-55-5-5-|
D|----------------------------------------|
A|-5-55-5-5--5-55-5-5--5-55-5-5--3-33-3-3-|
D|----------------------------------------|

Guitar two - x8
e|----------------------------------------|
B|----------------------------------------|
G|---------------------3-33-333--3-33-333-|
D|-0-00-000--1-11-111--3-33-333--3-33-333-|
A|-0-00-000--1-11-111--1-11-111--1-11-111-|
D|-0-00-000--1-11-111---------------------|


Guitar one - Alternate between these two x2
e|----|    |----|    |---------------------------------------|
B|----| x8 |----| x8 |---------------------------------------|
G|-10-|    |-12-|    |-10-10-10-8--8--8--10-10-10-10-10-8--7-|
D|----|    |----|    |---------------------------------------|
A|-8--|    |-10-|    |-8--8--8--6--6--6--8--8--8--8--8--6--5-|
D|----|    |----|    |---------------------------------------|


e|----|    |----|    |---------------------------------------|
B|----| x8 |----| x8 |---------------------------------------|
G|-14-|    |-12-|    |-10-10-10-8--8--8--10-10-10-10-10-8--7-|
D|----|    |----|    |---------------------------------------|
A|-12-|    |-10-|    |-8--8--8--6--6--6--8--8--8--8--8--6--5-|
D|----|    |----|    |---------------------------------------|

End on:
Guitar one   Guitar two
e|---|       |---|
B|---|       |---|
G|-7-|       |---|
D|-7-|       |-0-|
A|-5-|       |-0-|
D|---|       |-0-|

Outro - x4
e|-----------------------3-|
B|---------3-1-0-1---------|
G|---4-0---------------5---|
D|-2-----2---------3-5-----|
A|-------------------------|
D|-------------------------|
Добавлено: 26.12.2013
Другие материалы по этой песне:
  • Аккорды и текст

Страница создана 23.08.2013
http://primanota.ru/the-killing-tree/everything-you-had-is-gone-chords.htm
Привет, Гость.
Предлагаем пройти революционный курс по гитаре.
Подарок от PrimaNota.Ru, забирай!