PrimaNota.ru - самый крупный в мире бесплатный архив песенных текстов, аккордов, табулатур и нот


The Jungle Giants - Every Kind Of Way - бас-таба, видео

Регистрация Запомнить меня
Войти через:  Facebook Google Twitter Vk Yandex Mail.ru

The Jungle Giants - Every Kind Of Way - бас-таба, видео

Печатать
Просмотров: 52
Normal Tuning

Main Riff:
G|--------------------------------|
D|--------------------------------|
A|----5---------1-3-3-3-3-3-3-3-3-|
E|3-3---3-1-1-1-------------------|

-Stops a bar before each chorus,and in some other bits. But then just the same riff throughout.


then every now and then, plays this, cbf counting the bars

G|--------------------------------|
D|--------------------------3-3-3-|
A|----5---------1-3-3-3-3---------|
E|3-3---3-1-1-1-------------------|






Bridge:

G|--------------------------------|
D|--------------------------------|
A|3-3-3-3-------------------------|
E|--------1-1-1-3-3-3-3-3-3-3-3-3-|

G|--------------------------------|
D|--------------------------------|
A|3-3-3-3-1-----------------------|
E|----------1-1-3-3-3-3-3-3-3-3-3-|
Добавлено: 29.05.2016
Другие материалы по этой песне:
  • Аккорды и текст

Страница создана 29.05.2016
http://primanota.ru/the-jungle-giants/every-kind-of-way-chords.htm
Привет, Гость.
Предлагаем пройти революционный курс по гитаре.
Подарок от PrimaNota.Ru, забирай!