PrimaNota.ru - самый крупный в мире бесплатный архив песенных текстов, аккордов, табулатур и нот


The Jungle Giants - All The Wrong Places - таба, видео

Регистрация Запомнить меня
Войти через:  Facebook Google Twitter Vk Yandex Mail.ru

The Jungle Giants - All The Wrong Places - таба, видео

Печатать
Просмотров: 83
The Jungle Giants
All The Wrong Places
Off their self-titled album


Standard Tuning
Come on 0:07
Intro
e|---------------------------------------------------------------|
B|------10-10--8-8--10-10--8-8--10-10--8-8--10-10--8-8-----------|
G|---------------------------------------------------------------|
D|---------------------------------------------------------------|
A|---------------------------------------------------------------|
E|---------------------------------------------------------------|

e|-----15-13------------15-13------------------------------------|
B|-----------15-13------------15-13------------------------------|
G|-----------------14---------------14---------------------------|
D|---------------------------------------------------------------|
A|---------------------------------------------------------------|
E|---------------------------------------------------------------|

e|---------------------------------------------------------------|
B|------10-10--8-8--10-10--8-8--10-10--8-8--10-10--8-8-----------|
G|---------------------------------------------------------------|
D|---------------------------------------------------------------|
A|---------------------------------------------------------------|
E|---------------------------------------------------------------|

e|-----15-13------------15-13------------------------------------|
B|-----------15-13-----------15-13-------------------------------|
G|-----------------14--------------14-----------14/--------------|
D|---------------------------------------------------------------|
A|---------------------------------------------------------------|
E|---------------------------------------------------------------|

Verse
e|---------------------------------------------------------------|
B|---------------------------------------------------------------| Stroke
G|---------------------------------------------------------------| Down
D|3----------------------------8---------------------------------| Fast     
A|3---(palm-muted about x23)---8---(palm-muted about x16)--------|
E|1----------------------------6---------------------------------|

e|---------------------------------------------------------------|
B|---------------------------------------------------------------|
G|---------------------------------------------------------------|
D|3-----------------------------8--------------------------8~----|
A|3--(palm-muted about x16)-----8----(palm-muted about x8)-8~----|
E|1-----------------------------6--------------------------6~----|

e|---------------------------------------------------------------|
B|---------------------------------------------------------------|
G|---------------------------------------------------------------|
D|3--------------------------------------------------------------|
A|3--(palm-muted about x16)--------------------------------------|
E|1--------------------------------------------------------------|

e|---------------------------------------------------------------|
B|1----|---1--|-(x16)----|----1-|-(x8)--------|---1--|-(x16)-----|
G|-----|--2---|----------|--3---|------------|--2---|------------|
D|---------------------------------------------------------------|
A|---------------------------------------------------------------|
E|---------------------------------------------------------------|

e|---------------------------------------------------------------|
B|---|----1-|-(x6)---1--1-------|---1--|-(x4)---|----1-|-(x2)--1-1-1-1-|
G|---|--3---|-------3--2--------|--2---|--------|--3---|---------|
D|---------------------------------------------------------------|
A|---------------------------------------------------------------|
E|---------------------------------------------------------------|

Chorus
e|---------------------------------------------------------------|
B|------10-10--8-8--10-10--8-8--10-10--8-8--10-10--8-8-----------|
G|---------------------------------------------------------------|
D|---------------------------------------------------------------|
A|---------------------------------------------------------------|
E|---------------------------------------------------------------|

e|-----15-13------------15-13------------------------------------|
B|-----------15-13------------15-13------------------------------|
G|-----------------14---------------14---------------------------|
D|---------------------------------------------------------------|
A|---------------------------------------------------------------|
E|---------------------------------------------------------------|

e|---------------------------------------------------------------|
B|------10-10--8-8--10-10--8-8--10-10--8-8--10-10--8-8-----------|
G|---------------------------------------------------------------|
D|---------------------------------------------------------------|
A|---------------------------------------------------------------|
E|---------------------------------------------------------------|

e|-----15-13------------15-13------------------------------------|
B|-----------15-13-----------15-13-------------------------------|
G|-----------------14--------------14----------------------------|
D|---------------------------------------------------------------|
A|---------------------------------------------------------------|
E|---------------------------------------------------------------|

e|---------------------------------------------------------------|
B|------10-10--8-8--10-10--8-8--10-10--8-8--10-10--8-8------10/13|
G|---------------------------------------------------------------|
D|---------------------------------------------------------------|
A|---------------------------------------------------------------|
E|---------------------------------------------------------------|

e|---------------------------------------------------------------|
B|10-10--8-8--10-10--8-8--10-10--8-8--10-10--8-8--10-10--8-8--10-10--8-8-8--|
G|---------------------------------------------------------------|
D|---------------------------------------------------------------|
A|---------------------------------------------------------------|
E|---------------------------------------------------------------|

Verse 2
e|---------------------------------------------------------------|
B|-----|---1--|-(x16)----|----1-|-(x8)-------|---1--|-(x16)------|
G|-----|--2---|----------|--3---|------------|--2---|------------|
D|---------------------------------------------------------------|
A|---------------------------------------------------------------|
E|---------------------------------------------------------------|

e|---------------------------------------------------------------|
B|---|----1-|-(x6)---1--1--------|---1--|-(x4)--|----1-|-(x2)--1-1-1-1-|
G|---|--3---|-------3--2--------|--2---|--------|--3---|---------|
D|---------------------------------------------------------------|
A|---------------------------------------------------------------|
E|---------------------------------------------------------------|

Chorus 2
e|---------------------------------------------------------------|
B|------10-10--8-8--10-10--8-8--10-10--8-8--10-10--8-8-----------|
G|---------------------------------------------------------------|
D|---------------------------------------------------------------|
A|---------------------------------------------------------------|
E|---------------------------------------------------------------|

e|-----15-13------------15-13------------------------------------|
B|-----------15-13------------15-13------------------------------|
G|-----------------14---------------14---------------------------|
D|---------------------------------------------------------------|
A|---------------------------------------------------------------|
E|---------------------------------------------------------------|

e|---------------------------------------------------------------|
B|------10-10--8-8--10-10--8-8--10-10--8-8--10-10--8-8-----------|
G|---------------------------------------------------------------|
D|---------------------------------------------------------------|
A|---------------------------------------------------------------|
E|---------------------------------------------------------------|

e|-----15-13------------15-13------------------------------------|
B|-----------15-13-----------15-13-------------------------------|
G|-----------------14--------------14----------------------------|
D|---------------------------------------------------------------|
A|---------------------------------------------------------------|
E|---------------------------------------------------------------|

e|---------------------------------------------------------------|
B|------10-10--8-8--10-10--8-8--10-10--8-8--10-10--8-8------10/13|
G|---------------------------------------------------------------|
D|---------------------------------------------------------------|
A|---------------------------------------------------------------|
E|---------------------------------------------------------------|



SOLO
e|---------------------------------------------------------------|
B|10-10--8-8--10-10--8-8--10-10--8-8--10-10--8-8--10-10--8-8--10-10-10-8-|
G|---------------------------------------------------------------|
D|---------------------------------------------------------------|
A|---------------------------------------------------------------|
E|---------------------------------------------------------------|

e|----------13------13--13---15-15---13-------------13--13--13---|
B|-10-13-15-------15--15--15-------15--15-13--13h15---15--15-----|
G|---------------------------------------------------------------|
D|---------------------------------------------------------------|
A|---------------------------------------------------------------|
E|---------------------------------------------------------------|

e|15--13---------------------------------------------------------|
B|-------15-13--------------13--13--13--15-13--13---11-----------|
G|-------------14/12---12/14--14--14---------14--14-12-12/14-14-12-12-|
D|---------------------------------------------------------------|
A|---------------------------------------------------------------|
E|---------------------------------------------------------------|

e|----------------------13-15/17-17-17-17--17-17-17-18-18-18-18--|
B|-----------------13-15-----------------------------------------|
G|14-14-14-12-x--14----------------------------------------------|
D|---------------------------------------------------------------|
A|---------------------------------------------------------------|
E|---------------------------------------------------------------|
             
e|18-18-18--20-18-17-15-18-17-15-13-17-15-13---------------------|
B|-------------------------------------------15-13---------------|
G|-------------------------------------------------14-12---------|
D|---------------------------------------------------------------|
A|---------------------------------------------------------------|
E|---------------------------------------------------------------|

Verse 3
e|---------------------------------------------------------------|
B|-13-13--13--13-15-15--13----12---------------------------------|
G|-14---14--14-----14-----14--11---------------------------------|
D|---------------------------------------------------------------|
A|---------------------------------------------------------------|
E|---------------------------------------------------------------|

e|---------------------------------------13--13--13--13-15-13----|
B|-13-13--13--13-15-15--13----15--15-15--------15--15------------|
G|-14---14--14-----14-----14--14---------------------------------|
D|---------------------------------------------------------------|
A|---------------------------------------------------------------|
E|---------------------------------------------------------------|

e|---13-13-------17-17----15-15----------------------------------|
B|-15-----15--15-------15--------13-13h15------------------------|
G|---------------------------------------------------------------|
D|---------------------------------------------------------------|
A|---------------------------------------------------------------|
E|---------------------------------------------------------------|

e|---------------------------------------------------------------|
B|-13-13--13--13-15-15--13----12---------------------------------|
G|-14---14--14-----14-----14--11---------------------------------|
D|---------------------------------------------------------------|
A|---------------------------------------------------------------|
E|---------------------------------------------------------------|

e|---------------------------------------13--13--13--13-15-13----|
B|-13-13--13--13-15-15--13----15--15-15--------15--15------------|
G|-14---14--14-----14-----14--14---------------------------------|
D|---------------------------------------------------------------|
A|---------------------------------------------------------------|
E|---------------------------------------------------------------|

e|---13-13-------17-17----15-15------------131313131313----------|
B|-15-----15--15-------15--------13-13h15--151515151515--10/-13--|
B|-----------------------------------------141414141414----------|
G|---------------------------------------------------------------|
D|---------------------------------------------------------------|
A|---------------------------------------------------------------|
E|---------------------------------------------------------------|

e|---------------------------------------------------------------|
B|------------------------------15---10---13---------------------|
G|-10----12------10-----14--17----------------10-----------------|
D|---------------------------------------------------------------|
A|---------------------------------------------------------------|
E|---------------------------------------------------------------|




This is my first tab so have mercy. The solo is about 98% accurate. Please rate 
and let me know how you like it. :)

| /  slide up
| \  slide down
| h  hammer-on
| p  pull-off
| ~  vibrato
| +  harmonic
| x  Mute note
Добавлено: 14.06.2013
Другие материалы по этой песне:
  • Аккорды и текст

Страница создана 14.06.2013
http://primanota.ru/the-jungle-giants/all-the-wrong-places-chords.htm
Привет, Гость.
Предлагаем пройти революционный курс по гитаре.
Подарок от PrimaNota.Ru, забирай!