PrimaNota.ru - самый крупный в мире бесплатный архив песенных текстов, аккордов, табулатур и нот


The Judes - Mpi - бас-таба, видео

Регистрация Запомнить меня
Войти через:  Facebook Google Twitter Vk Yandex Mail.ru

The Judes - Mpi - бас-таба, видео

Печатать
Просмотров: 129
Уроки эстрадного вокала в Санкт-Петербурге
-------------------------------------------------------------------------------
                             M.P.I. - The Judes
-------------------------------------------------------------------------------
Tabbed by: Trex
E-mail: 

Tuning: standard

Intro:

G|---------|---------|---------|---------|
D|---------|---------|---------|---------|
A|---------|---------|---------|---------|  x 8
E|-0-0-0-0-|-0-0-0-0-|-0-0-0-0-|-0-0-0-0-|

G|---------------------|------------------------|
D|---5-3-2p0-----------|---5-3p2p0--------------|
A|-3-------------------|-3----------------------| x 4
E|-----------3-3-3-3-3-|-----------3-3-3--3-3-3-|

Verse:

You got a system.......

G|---------------------------------------------------------------------------|
D|---------------------------------------------------------------------------|
A|-5-5-5--5--5-5---------5-5-5--5--5-5---------5-5-5--5--5-5-----------------|
E|---------------3-3-3-3---------------3-3-3-3---------------3-3-3-3--3-3----|

G|---------------------------------------------------------------------------|
D|---------------------------------------------------------------------------|
A|-3-3-2-2-------5--5-5-5-5-5-5--5-5-5-----------5-5-5--5-5-5----------------|
E|---------5-5-3-----------------------3-3-3-3-3--------------3-3-3-3--3-3---|

G|---------------------------------------------------------------------------|
D|---------------------------------------------------------------------------|
A|-5-5-5--5-5-5--------------3-3-2-2-------5--5-5-5--5-5---------------------|
E|--------------3-3-3-3--3-3---------5-5-3-----------------------------------|

Chorus:

You scream revolution.......

G|---------------------------------------------------------------------------|
D|---------------------------------------------------------------------------|
A|-3-x-x-3-x-x-x------------3-x-x-3-x-x--------------3-x-x-3-x-x-x-----------|
E|---------------1-1-0--0-0-------------1-1-1-0--0-0---------------1-1-0--0-0|

G|---------------------------------------------------------------------------|
D|---------------------------------------------------------------------------|
A|---------------------------------------------------------------------------|
E|-3-3-3-3-3-3-3-3-----------------------------------------------------------|

Bridge:

G|---------------------------------------------------------------------------|
D|-1-1-1-1-------------------------1-1-1-1-----------------------------------|
A|---------1-1-1-1-------------------------1-1-1-1-3-3-3-3--3--3-3-3-3-3-3---|
E|-----------------1-1-1-1-3-3-3-3-------------------------------------------|

Final Chorus

G|---------------------------------------------------------------------------|
D|---------------------------------------------------------------------------|
A|-5-x-x-5-5-5------------5-x-x-5-5-5-5------------5-x-x-5-5-5---------------|
E|-------------3-3-2--2-2---------------3-3--2-2-2-------------3-3-3-2-2-2---|

1st ending:          2nd ending:

G|-----------------|---------------------------------------------------------|
D|-----------------|---------------------------------------------------------|
A|-----------------|---------------------------------------------------------|
E|-5-5-5-5-5-5-5-5-|--5-5-5-5-5-5--5-5-5-------------------------------------|

Intro
Verse x 2
Chorus x 1
Verse x 2
Chorus x 1
Solo: (verse chords)
Bridge
Chorus x 2

| /  slide up
| \  slide down
| h  hammer-on
| p  pull-off
| ~  vibrato
| +  harmonic
| x  Mute note
===============================================================================
Добавлено: 14.07.2015
Другие материалы по этой песне:
  • Аккорды и текст

Страница создана 14.07.2015
http://primanota.ru/the-judes/mpi-chords.htm
Привет, Гость.
Предлагаем пройти революционный курс по гитаре.
Подарок от PrimaNota.Ru, забирай!