PrimaNota.ru - самый крупный в мире бесплатный архив песенных текстов, аккордов, табулатур и нот


The Jezabels - Endless Summer Acoustic Live - аккорды и текст, видео

Регистрация Запомнить меня
Войти через:  Facebook Google Twitter Vk Yandex Mail.ru

The Jezabels - Endless Summer Acoustic Live - аккорды и текст, видео

Печатать
Просмотров: 54
Endless Summer Acoustic Live
The Jezabels
Based on campside session, so that is where you can find out how to play it. It's easier than it looks :D
Note: Sam plays first chorus same as intro, but you can play it in chords like in second chorus.



Chords:

  CM7 |GM7| C7| D | G| C/A| Em
1  0  | 0 | x | x | 0|  0 | 0
2  0  | 0 | 0 | 0 | 0|  0 | 0
3  0  | 0 | 9 | 11| 0|  0 | 0
4  2  | 4 | 10| 12| 0|  5 | 5
5  3  | 5 | 10| 12| 2|  3 | 7
6  3  | 5 | 8 | 10| 3|  5 | 7



[Intro]
  Bm/C             Gsus2         D5                Asus2
e|---------------------------------------------------------------------------|
B|---------------------------------------------------------------------------|
G|-----4-----0---0-----2-----4---2-----2-----2---2-----4-----0---0-----------|
D|---------------------------------0-0---0-0---0-----------------------------|
A|-3-3---3-3---3-----------------------------------0-0---0-0---0-------------|
E|-----------------3-3---3-3---3---------------------------------------------|

(pause)
CM7(from second to sixth string) x1
[Verse 1]

CM7                         GM7
 And in the morning I'll be waiting,
CM7                    GM7
 For your never-ending wave,
CM7                  GM7
 For our passage to arise,
CM7          GM7
 How can I explain it?

[Chorus]
(Same as intro, OR you can play it in chords like shown below: CM7,G,GM7,C/A)

Bm/C      Gsus2  D5       Asus4
 You came home    for the endless summer,
Bm/C   Gsus2  D5     Asus4 
 On the white, saw a different color,
Bm/C     Gsus2   D5         Asus4
 In the streets,  you got a secret to repeat,
Bm/C   Gsus4   D5          Asus4
 In my mind,    you're the ephemeral kind.

[Verse 2]
C7                    D
 Never too late to be touched by,
C7                            D
 The feasting tendrils of the night,
C7                       D5
 Now left to ponder your devotions,
CM7                   GM7
 Now left imagining a time.

[Chorus]
CM7       G      GM7      C/A
 You came home    for the endless summer,
CM7       G     GM7      C/A
 Watch me go     paint a famous warrior,
CM7     G       GM7           C/A      
 Of the light,   you were the strongest follower,
CM7    G     GM7         C/A             GM7 Em
 In my mind - you are an endless summer!
CM7         G            GM7  Em
 An endless summer in my mind,
CM7         G            GM7  Em
 An endless summer in my mind,
CM7         G            GM7  Em
 An endless summer in my mind.

CM7(from second to sixth string)x1

[Solo] (play the same in first two lines of the verse):
  E             D#              C               A
e|---------------------------------------------------------------------------|
B|---------------------------------------------------------------------------|
G|---------------------------------------------------------------------------|
D|---------------------------------------------------------------------------|
A|--------------5---5---5-5-5-5-3---3---3-3-3-3------------------------------|
E|0---0---0-0-0---------------------------------5---5---5-5-5----------------|

[Verse 3]
 E           D#            C               A     
 Yeah, I get low and black witches hold my hand,
 E           D#        C           A    
 Yeah, I get low, feel no one understands,

   G6        Gadd9     Gadd11    Gadd9
e|---------------------------------------------------------------------------|
B|-------0-----------0-----------0-----------0-------------------------------|
G|-------0-----------0-----------0-----------0-------------------------------|
D|---------9-----------7-----------5-----------7-----------------------------|
A|---7-----------5-----------3-----------5-----------------------------------|
E|-7---7-------5---5-------3---3-------5---5---------------------------------|
 G6    Gadd9        Gadd11       Gadd9
 Now mistakes, make mantelpieces bend,
 G6         Gadd9          Gadd11         Gadd9
 Now, black cinders, black cinder til the end.

[Chorus]

CM7       G    GM7      C/A
 You came home  for the endless summer,
CM7       G   GM7      C/A
 Watch me go,  paint a different color,
CM7    G      GM7           C/A
 Of my life,   you were the deepest lover,
CM7        G    GM7          C/A             GM7 Em
 Stay with me,   here in the endless summer!

CM7         G            GM7  Em
 An endless summer in my mind,
CM7         G            GM7  Em
 An endless summer in my mind,
CM7         G            GM7  Em
 An endless summer in my mind. 
Добавлено: 20.07.2015
Вам также может быть интересно:
Другие материалы по этой песне:
  • Аккорды и текст

Страница создана 20.07.2015
http://primanota.ru/the-jezabels/endless-summer-acoustic-live-chords.htm
Привет, Гость.
Предлагаем пройти революционный курс по гитаре.
Подарок от PrimaNota.Ru, забирай!