PrimaNota.ru - самый крупный в мире бесплатный архив песенных текстов, аккордов, табулатур и нот


The James Taylor Quartet - Austins Theme - таба, бас-таба, видео

Регистрация Запомнить меня
Войти через:  Facebook Google Twitter Vk Yandex Mail.ru

The James Taylor Quartet - Austins Theme - таба, бас-таба, видео

Печатать
Просмотров: 190
Уроки эстрадного вокала в Санкт-Петербурге
Авторы музыки: George Clinton

AUSTIN'S THEME

As recorded by James Taylor Quartet
(From the 1996 Album CREATION)

Music by George Clinton

Transcribed by Slowhand


Gtr I (E A D G B E) - 'David Taylor - Electric Guitar'
Gtr II (E A D G B E) - 'David Taylor - Electric Guitar'
Gtr III (E A D G B E) - 'Horns'


  Freely Q=72
  Gm7
 4/4
  Gtr I (Clean El. Gtr.)
   TP           TP            TP            TP
   W           +W            +W            +Q    Q   Q   Q
|-----------|-------------|-------------|-------------------||
|-11--------|-(11)--------|-(11)--------|-(11)--11--11--11--||
|-10--------|-(10)--------|-(10)--------|-(10)--10--10--10--||
|-----------|-------------|-------------|-------------------||
|-10--------|-(10)--------|-(10)--------|-(10)--10--10--10--||
|-----------|-------------|-------------|-------------------||


    In time Q=144
    N.C.
    W                 W
||------------------|------------------||-|
||o-----------------|-----------------o||-|
||------------------|------------------||-|
||------------------|------------------||-|
||o-----------------|-----------------o||-|
||------------------|------------------||-|
|
|   Gtr II (Clean El. Gtr.)
|   E E E E E E E E   E E E E E E E E
||------------------|------------------||-|
||o-----------------|-----------------o||-|
||------------------|------------------||-|
||------------------|------------------||-|
||o---------3---4-5-|---------3---4-5-o||-|
||--3-3---3---3-----|-3-3---3---3------||-|
|
|   Gtr III (Horns arr. for Gtr.)
|   W                 W
||------------------|------------------||-|
||o-----------------|-----------------o||-|
||------------------|------------------||-|
||------------------|------------------||-|
||o-----------------|-----------------o||-|
||------------------|------------------||-|


    Gm9
    E E E E E E E E    E  E E E E E E E
||----3---3---3---3-|-----3---3---3---3--|
||o-3---3---6---6---|--5----5---4---4----|
||------------------|--------------------|
||------------------|--------------------|
||o-----------------|--------------------|
||------------------|--------------------|
|
|   E E E E E E E E    E  E E E E E E E
||------------------|--------------------|
||o-----------------|--------------------|
||------------------|--------------------|
||------------------|--------------------|
||o---------3---4-5-|-----------3---4-5--|
||--3-3---3---3-----|--3--3---3---3------|
|
|   W                 +W
||--5---------------|-(5)----------------|
||o-7---------------|-(7)----------------|
||--7---------------|-(7)----------------|
||--8---------------|-(8)----------------|
||o-----------------|--------------------|
||------------------|--------------------|


  E E E  E E E E E    E  E E E E E E E
|---3----3---3---3-|-----3---3---3---3--||
|-3---3----6---6---|--5----5---4---4---o||
|------------------|--------------------||
|------------------|--------------------||
|------------------|-------------------o||
|------------------|--------------------||
|
| E E E  E E E E E    E  E E E E E E E
|------------------|--------------------||
|------------------|-------------------o||
|------------------|--------------------||
|------------------|--------------------||
|----------3---4-5-|-----------3---4-5-o||
|-3-3----3---3-----|--3--3---3---3------||
|
| E E H.             +W
|-5---5------------|-(5)----------------||
|-7---7------------|-(7)---------------o||
|-7---7------------|-(7)----------------||
|-8---8------------|-(8)----------------||
|------------------|-------------------o||
|------------------|--------------------||


      Gm      Bb/F      C/E     Eb6
      E E E E E E E E   E E E E E E E E  4x
|-||----3---3---3---3-|---3---3---3---3--||
|-||o-3---3---6---6---|-5---5---4---4---o||
|-||------------------|------------------||
|-||------------------|------------------||
|-||o-----------------|-----------------o||
|-||------------------|------------------||
|
|     Q   E E Q   E E   Q   E E Q   Q    4x
|-||------------------|------------------||
|-||o-----------------|-----------------o||
|-||------------------|------------------||
|-||------------------|------------------||
|-||o-----------------|-3-----3-4---5---o||
|-||--3-----3-6-----6-|------------------||
|
|     H       H         H       H        4x
|-||--3---------------|------------------||
|-||o-3-------3-------|-----------------o||
|-||--3-------3-------|-5-------5--------||
|-||--5-------3-------|-5-------5--------||
|-||o-----------------|-7-------6-------o||
|-||------------------|------------------||


    Gm9
    E E E E E E E E    E  E E E E E E E
||----3---3---3---3-|-----3---3---3---3-|
||o-3---3---6---6---|--5----5---4---4---|
||------------------|-------------------|
||------------------|-------------------|
||o-----------------|-------------------|
||------------------|-------------------|
|
|   Q   E E Q   E E    Q    E E Q   Q
||------------------|-------------------|
||o-----------------|-------------------|
||------------------|-------------------|
||------------------|-------------------|
||o-----------------|--3------3-4---5---|
||--3-----3-6-----6-|-------------------|
|
|   W                 +W
||--5---------------|-(5)---------------|
||o-7---------------|-(7)---------------|
||--7---------------|-(7)---------------|
||--8---------------|-(8)---------------|
||o-----------------|-------------------|
||------------------|-------------------|


  E E E  E E E E E    E  E E E E E E E
|---3----3---3---3-|-----3---3---3---3--||
|-3---3----6---6---|--5----5---4---4---o||
|------------------|--------------------||
|------------------|--------------------||
|------------------|-------------------o||
|------------------|--------------------||
|
| Q   E  E Q   E E    Q    E E Q   Q
|------------------|--------------------||
|------------------|-------------------o||
|------------------|--------------------||
|------------------|--------------------||
|------------------|--3------3-4---5---o||
|-3------3-6-----6-|--------------------||
|
| E E H.             +W
|-5---5------------|-(5)----------------||
|-7---7------------|-(7)---------------o||
|-7---7------------|-(7)----------------||
|-8---8------------|-(8)----------------||
|------------------|-------------------o||
|------------------|--------------------||


    N.C.
    E E E E E E E E   E E E E E E E E
||----3---3---3---3-|---3---3---3---3-|
||o-3---3---6---6---|-5---5---4---4---|
||------------------|-----------------|
||------------------|-----------------|
||o-----------------|-----------------|
||------------------|-----------------|
|
|   Q   E E Q   E E   Q   E E Q   Q
||------------------|-----------------|
||o-----------------|-----------------|
||------------------|-----------------|
||------------------|-----------------|
||o-----------------|-3-----3-4---5---|
||--3-----3-6-----6-|-----------------|
|
|   Q   Q   E E E E   Q   E E E Q   E
||------------------|-----------------|
||o-----3-----------|-----------------|
||----------5-3-----|-----------3---5-|
||--------------5-3-|-5---5-3-5-------|
||o-----------------|-----------------|
||------------------|-----------------|


   E  E E E E E E E   E E E E  E   E E E
|-----3---3---3---3-|---3---3------3---3--||
|--3----3---6---6---|-5---5----4-----4---o||
|-------------------|---------------------||
|-------------------|---------------------||
|-------------------|--------------------o||
|-------------------|---------------------||
|
|  Q    E E Q   E E   Q   E E  Q     Q
|-------------------|---------------------||
|-------------------|--------------------o||
|-------------------|---------------------||
|-------------------|---------------------||
|-------------------|-3-----3--4-----5---o||
|--3------3-6-----6-|---------------------||
|
| +E  E E E E E E E   Q   E E +Q     Q
|-------------------|---------------------||
|-------------------|--------------------o||
|-(5)-6-5-6-5-3-----|-------3-(3)\--------||
|---------------5-3-|-5---5---------------||
|-------------------|--------------------o||
|-------------------|---------------------||


    Gm9
    E E E E E E E E    E  E E E E E E E
||----3---3---3---3-|-----3---3---3---3-|
||o-3---3---6---6---|--5----5---4---4---|
||------------------|-------------------|
||------------------|-------------------|
||o-----------------|-------------------|
||------------------|-------------------|
|
|   Q   E E Q   E E    Q    E E Q   Q
||------------------|-------------------|
||o-----------------|-------------------|
||------------------|-------------------|
||------------------|-------------------|
||o-----------------|--3------3-4---5---|
||--3-----3-6-----6-|-------------------|
|
|   W                 +W
||--5---------------|-(5)---------------|
||o-7---------------|-(7)---------------|
||--7---------------|-(7)---------------|
||--8---------------|-(8)---------------|
||o-----------------|-------------------|
||------------------|-------------------|


  E E E  E E E E E    E  E E E E E E E
|---3----3---3---3-|-----3---3---3---3--||
|-3---3----6---6---|--5----5---4---4---o||
|------------------|--------------------||
|------------------|--------------------||
|------------------|-------------------o||
|------------------|--------------------||
|
| Q   E  E Q   E E    Q    E E Q   Q
|------------------|--------------------||
|------------------|-------------------o||
|------------------|--------------------||
|------------------|--------------------||
|------------------|--3------3-4---5---o||
|-3------3-6-----6-|--------------------||
|
| E E H.             +W
|-5---5------------|-(5)----------------||
|-7---7------------|-(7)---------------o||
|-7---7------------|-(7)----------------||
|-8---8------------|-(8)----------------||
|------------------|-------------------o||
|------------------|--------------------||


    N.C.
    E E  E E E E E E   E E  E  E E E E E
||----3----3---3---3-|---3-----3---3---3-|
||o-3----3---6---6---|-5----5----4---4---|
||-------------------|-------------------|
||-------------------|-------------------|
||o------------------|-------------------|
||-------------------|-------------------|
|
|   Q    E E Q   E E   Q    E  E Q   Q
||-------------------|-------------------|
||o------------------|-------------------|
||-------------------|-------------------|
||-------------------|-------------------|
||o------------------|-3-------3-4---5---|
||--3------3-6-----6-|-------------------|
|
|   E Q.     Q   Q     E E +H.
||---------------5---|-5-6-(6)-----------|
||o---5------8-------|-------------------|
||-------------------|-------------------|
||-------------------|-------------------|
||o------------------|-------------------|
||-------------------|-------------------|


  E E  E E E E E E   E E  E  E E E E E
|---3----3---3---3-|---3-----3---3---3--||
|-3----3---6---6---|-5----5----4---4---o||
|------------------|--------------------||
|------------------|--------------------||
|------------------|-------------------o||
|------------------|--------------------||
|
| Q    E E Q   E E   Q    E  E Q   Q
|------------------|--------------------||
|------------------|-------------------o||
|------------------|--------------------||
|------------------|--------------------||
|------------------|-3-------3-4---5---o||
|-3------3-6-----6-|--------------------||
|
| E Q.     Q   Q     E E +H.
|--------------5---|-8-6-(6)------------||
|---5------8-------|-------------------o||
|------------------|--------------------||
|------------------|--------------------||
|------------------|-------------------o||
|------------------|--------------------||


    G#m9
    E E E E E E E E    E  E E E  E  E E E   E E E  E E E E E
||----4---4---4---4-|-----4---4-----4---4-|---4----4---4---4--|
||o-4---4---7---7---|--6----6----5----5---|-4---4----7---7----|
||------------------|---------------------|-------------------|
||------------------|---------------------|-------------------|
||o-----------------|---------------------|-------------------|
||------------------|---------------------|-------------------|
|
|   Q   E E Q   E E    Q    E E +Q    Q     Q   E  E Q   E E
||------------------|---------------------|-------------------|
||o-----------------|---------------------|-------------------|
||------------------|---------------------|-------------------|
||------------------|---------------------|-------------------|
||o-----------------|--4------5-(5)---6---|-------------------|
||--4-----4-7-----7-|---------------------|-4------4-7-----7--|
|
|   W                 +W                    E E H.
||--6---------------|-(6)-----------------|-6---6-------------|
||o-8---------------|-(8)-----------------|-8---8-------------|
||--8---------------|-(8)-----------------|-8---8-------------|
||--9---------------|-(9)-----------------|-9---9-------------|
||o-----------------|---------------------|-------------------|
||------------------|---------------------|-------------------|


                                               1.,2.,3.,4.,5.,6.,7.
                              Am      C/G       D/F#    F6
   E  E E E  E  E E E         E E E E E E E E   E E E E E E E E  8x
|-----4---4-----4---4--||-||----5---5---5---5-|---5---5---5---5--||
|--6----6----5----5---o||-||o-5---5---8---8---|-7---7---6---6---o||
|----------------------||-||------------------|------------------||
|----------------------||-||------------------|------------------||
|---------------------o||-||o-----------------|-----------------o||
|----------------------||-||------------------|------------------||
|
|  Q    E E +Q    Q           Q   E E Q   E E   Q   E E Q   Q    8x
|----------------------||-||------------------|------------------||
|---------------------o||-||o-----------------|-----------------o||
|----------------------||-||------------------|------------------||
|----------------------||-||------------------|------------------||
|--4------5-(5)---6---o||-||o-----------------|-5-----5-6---7---o||
|----------------------||-||--5-----5-8-----8-|------------------||
|
| +W                          H       H         H       H        8x
|-(6)------------------||-||--5---------------|------------------||
|-(8)-----------------o||-||o-5-------5-------|-----------------o||
|-(8)------------------||-||--5-------5-------|-7-------7--------||
|-(9)------------------||-||--7-------5-------|-7-------7--------||
|---------------------o||-||o-----------------|-9-------8-------o||
|----------------------||-||------------------|------------------||


  8.                             1.,2.,3.           4.
  D/F#    F6           N.C.
  E E E E E E E  E     W           W              4x  W
|---5---5---5----5-||-----------|-----------------||--------||
|-7---7---6---6----||o----------|----------------o||--------||
|------------------||-----------|-----------------||--------||
|------------------||-----------|-----------------||--------||
|------------------||o----------|----------------o||--------||
|------------------||-----------|-----------------||--------||
|
| E E E E Q   E  E     W          +H.      +E  E  4x  W
|------------------||-----------|-----------------||--------||
|------------------||o----------|----------------o||--------||
|------------------||-----------|-----------------||--------||
|------------------||-----------|-----------------||--------||
|-5-------6---7\---||o----------|----------------o||--------||
|---5---5--------1-||--3--------|-(3)------(3)-1--||-(1)----||
|
| H       H            W           W              4x  W
|------------------||-----------|-----------------||--------||
|------------------||o----------|----------------o||--------||
|-7-------7--------||-----------|-----------------||--------||
|-7-------7--------||-----------|-----------------||--------||
|-9-------8--------||o----------|----------------o||--------||
|------------------||-----------|-----------------||--------||


  N.C.
  E E E E E E E E   E E E E E E E E   E E E E E E E E   E E E E E E E E
|---3---3---3---3-|---3---3---3---3-|---3---3---3---3-|---3---3---3---3--|
|-3---3---6---6---|-5---5---4---4---|-3---3---6---6---|-5---5---4---4----|
|-----------------|-----------------|-----------------|------------------|
|-----------------|-----------------|-----------------|------------------|
|-----------------|-----------------|-----------------|------------------|
|-----------------|-----------------|-----------------|------------------|
|
| E E E E E E E E   E E E E E E E E   E E E E E E E E   E E E E E E E E
|-----------------|-----------------|-----------------|------------------|
|-----------------|-----------------|-----------------|------------------|
|-----------------|-----------------|-----------------|------------------|
|-----------------|-----------------|-----------------|------------------|
|---------3---4-5-|---------3---4-5-|---------3---4-5-|---------3---4-5--|
|-3-3---3---3-----|-3-3---3---3-----|-3-3---3---3-----|-3-3---3---3------|


  Gm9
  E E E E E E E E    E  E E E E E E E   E E E  E E E E E    E  E E E E E E E
|---3---3---3---3-|-----3---3---3---3-|---3----3---3---3-|-----3---3---3---3--||
|-3---3---6---6---|--5----5---4---4---|-3---3----6---6---|--5----5---4---4----||
|-----------------|-------------------|------------------|--------------------||
|-----------------|-------------------|------------------|--------------------||
|-----------------|-------------------|------------------|--------------------||
|-----------------|-------------------|------------------|--------------------||
|
| E E E E E E E E    E  E E E E E E E   E E E  E E E E E    E  E E E E E E E
|-----------------|-------------------|------------------|--------------------||
|-----------------|-------------------|------------------|--------------------||
|-----------------|-------------------|------------------|--------------------||
|-----------------|-------------------|------------------|--------------------||
|---------3---4-5-|-----------3---4-5-|----------3---4-5-|-----------3---4-5--||
|-3-3---3---3-----|--3--3---3---3-----|-3-3----3---3-----|--3--3---3---3------||
|
| Gtr III
| W                 +W                  E E H.             +W
|-5---------------|-(5)---------------|-5---5------------|-(5)----------------||
|-7---------------|-(7)---------------|-7---7------------|-(7)----------------||
|-7---------------|-(7)---------------|-7---7------------|-(7)----------------||
|-8---------------|-(8)---------------|-8---8------------|-(8)----------------||
|-----------------|-------------------|------------------|--------------------||
|-----------------|-------------------|------------------|--------------------||


    N.C.
    E E E E E E E E   E E E E E E E E  4x
||----3---3---3---3-|---3---3---3---3--||-|
||o-3---3---6---6---|-5---5---4---4---o||-|
||------------------|------------------||-|
||------------------|------------------||-|
||o-----------------|-----------------o||-|
||------------------|------------------||-|
|
|   Q   E E Q   E E   Q   E E Q   Q    4x
||------------------|------------------||-|
||o-----------------|-----------------o||-|
||------------------|------------------||-|
||------------------|------------------||-|
||o-----------------|-3-----3-4---5---o||-|
||--3-----3-6-----6-|------------------||-|
|
|   W                 W                4x
||------------------|------------------||-|
||o-----------------|-----------------o||-|
||------------------|------------------||-|
||------------------|------------------||-|
||o-----------------|-----------------o||-|
||------------------|------------------||-|


    G#m9
    E E E E E E E E    E  E E E  E  E E E
||----4---4---4---4-|-----4---4-----4---4--|
||o-4---4---7---7---|--6----6----5----5----|
||------------------|----------------------|
||------------------|----------------------|
||o-----------------|----------------------|
||------------------|----------------------|
|
|   Q   E E Q   E E    Q    E E +Q    Q
||------------------|----------------------|
||o-----------------|----------------------|
||------------------|----------------------|
||------------------|----------------------|
||o-----------------|--4------5-(5)---6----|
||--4-----4-7-----7-|----------------------|
|
|   W                 +W
||--6---------------|-(6)------------------|
||o-8---------------|-(8)------------------|
||--8---------------|-(8)------------------|
||--9---------------|-(9)------------------|
||o-----------------|----------------------|
||------------------|----------------------|


  E E E  E E E E E    E  E E E  E  E E E
|---4----4---4---4-|-----4---4-----4---4--||-|
|-4---4----7---7---|--6----6----5----5---o||-|
|------------------|----------------------||-|
|------------------|----------------------||-|
|------------------|---------------------o||-|
|------------------|----------------------||-|
|
| Q   E  E Q   E E    Q    E E +Q    Q
|------------------|----------------------||-|
|------------------|---------------------o||-|
|------------------|----------------------||-|
|------------------|----------------------||-|
|------------------|--4------5-(5)---6---o||-|
|-4------4-7-----7-|----------------------||-|
|
| E E H.             +W
|-6---6------------|-(6)------------------||-|
|-8---8------------|-(8)-----------------o||-|
|-8---8------------|-(8)------------------||-|
|-9---9------------|-(9)------------------||-|
|------------------|---------------------o||-|
|------------------|----------------------||-|


    N.C.
    E E  E E  E E  E E    E  E   E  E E E E E
||----5----5----5----5-|-----5------5---5---5-|
||o-5----5----8----8---|--7------7----6---6---|
||---------------------|----------------------|
||---------------------|----------------------|
||o--------------------|----------------------|
||---------------------|----------------------|
|
|   Q    E E  Q    E E    Q      E  E Q   Q
||---------------------|----------------------|
||o--------------------|----------------------|
||---------------------|----------------------|
||---------------------|----------------------|
||o--------------------|--5---------5-6---7---|
||--5------5--8------8-|----------------------|
|
|   E Q.      Q    Q      E  E  +H.
||---------------------|----------------------|
||o----------10---11---|-11-13-(13)-----------|
||----9----------------|----------------------|
||---------------------|----------------------|
||o--------------------|----------------------|
||---------------------|----------------------|


                                                Freely Q=72
                                                G#m9
  E E  E E  E E  E E    E  E   E  E E E E E     W
|---5----5----5----5-|-----5------5---5---5--||------|
|-5----5----8----8---|--7------7----6---6---o||------|
|--------------------|-----------------------||------|
|--------------------|-----------------------||------|
|--------------------|----------------------o||------|
|--------------------|-----------------------||------|
|
| Q    E E  Q    E E    Q      E  E Q   Q       W
|--------------------|-----------------------||------|
|--------------------|----------------------o||------|
|--------------------|-----------------------||------|
|--------------------|-----------------------||------|
|--------------------|--5---------5-6---7---o||------|
|-5------5--8------8-|-----------------------||------|
|
|                                               TP
| E Q.      Q    Q      E  E  +H.               W
|--------------------|-10--------------------||-6----|
|----------10---11---|----13-(13)-----------o||-8----|
|---9----------------|-----------------------||-8----|
|--------------------|-----------------------||-7----|
|--------------------|----------------------o||------|
|--------------------|-----------------------||------|


  Gtr III
   TP           TP
  +W           +W           q  Q  H
|-(6)--------|-(6)--------|-6----------*|
|-(8)--------|-(8)--------|-8----------*|
|-(8)--------|-(8)--------|-8----------*|
|-(7)--------|-(7)--------|-7----------*|
|------------|------------|------------*|
|------------|------------|------------*|


Duration Legend
---------------
W - whole; H - half; Q - quarter; E - 8th; S - 16th; T - 32nd; X - 64th; a - acciaccatura
+ - note tied to previous; . - note dotted; .. - note double dotted
Uncapitalized letters represent notes that are staccato (1/2 duration)
Irregular groupings are notated above the duration line
Duration letters will always appear directly above the note/fret number it represents the
duration for.  Duration letters with no fret number below them represent rests.  Multi-
bar rests are notated in the form Wxn, where n is the number of bars to rest for.  Low
melody durations appear below the staff

Tablature Legend
----------------
 h   - hammer-on
 p   - pull-off
 b   - bend
 pb  - pre-bend
 r   - bend release (if no number after the r, then release immediately)
 /\  - slide into or out of (from/to "nowhere")
 s   - legato slide
 S   - shift slide
  - natural harmonic
[n]  - artificial harmonic
n(n) - tapped harmonic
 ~   - vibrato
 tr  - trill
 T   - tap
 TP  - trem. picking
 PM  - palm muting
\n/  - tremolo bar dip; n = amount to dip
 \n  - tremolo bar down
 n/  - tremolo bar up
/n\  - tremolo bar inverted dip
 =   - hold bend; also acts as connecting device for hammers/pulls
 <>  - volume swell (louder/softer)
 x   - on rhythm slash represents muted slash
 o   - on rhythm slash represents single note slash

Misc Legend
-----------
 |  - bar
||  - double bar
||o - repeat start
o|| - repeat end
*|  - double bar (ending)
 :  - bar (freetime)
 $  - Segno
 &  - Coda
Tempo markers -  = BPM(8/16=s8/s16), where s8 = swing 8ths, s16 = swing 16ths
Добавлено: 03.09.2015
Вам также может быть интересно:
Другие материалы по этой песне:

Страница создана 03.09.2015
http://primanota.ru/the-james-taylor-quartet/austins-theme-chords.htm
Привет, Гость.
Предлагаем пройти революционный курс по гитаре.
Подарок от PrimaNota.Ru, забирай!