PrimaNota.ru - самый крупный в мире бесплатный архив песенных текстов, аккордов, табулатур и нот


The Icarus Account - Favorite Girl - аккорды и текст, таба, видео

Регистрация Запомнить меня
Войти через:  Facebook Google Twitter Vk Yandex Mail.ru

The Icarus Account - Favorite Girl - аккорды и текст, таба, видео

Печатать
Просмотров: 539
Favorite Girl
The Icarus Account
INTRO:
e|---------0--------0--------0--------0-----3---3----3--------------|
B|------1--------1--------1--------1--------1---1----1--------------|
G|------------------------------------------------------------------|
D|---------------------------------------3--------3-----------------|
A|---3--------2--------0--------------------------------------------|
E|------------------------------3-----------------------------------|

(You can play the tab or chords)

C            F
Boston never seemed to be
C                F
So lovely in the fall to me
C             F
Florida's not so cold
Am                     G
But distance just gets old

e|------3--3--3--3-----3--3--3--3-----3--3--3--3--------------------|
B|------1--1--1--1-----1--1--1--1-----1--1--1--1--------------------|
G|------------------------------------------------------------------|
D|---3--------------------------------------------------------------|
A|------------------3--------------0--------------------------------|
E|------------------------------------------------3--3--5--3--5--3--|

(The tab here wasn't really clear, so I just guess the pattern was somehow like this)

F                C
Hey maybe we can stay
             Am            G
Maybe we can lay like this forever


REFF:
F                        C
Don't you know she is my favorite girl
Am                     G
I want to run away for days with her
F                         C
And if you promise not to say a thing
Am                        G
I'm gonna buy that girl a diamond ring

F          G
I said oooooh
        C       Am
I think I love you
F      G
Oooooh
C       Am          F         G (stop)
I think I love you, I love you
My favorite girl

INTERLUDE:
e|---------0--------0--------0--------0-----3---3----3--------------|
B|------1--------1--------1--------1--------1---1----1--------------|
G|------------------------------------------------------------------|
D|---------------------------------------3--------3-----------------|
A|---3--------2--------0--------------------------------------------|
E|------------------------------3-----------------------------------|

(For the next part is more difficult, but the pattern is still the same with longer F. 
the chords are these: C B A G F E F E F F)

C              F
It's funny how love takes you by surprise
Am                G
And I just didn't know what I was missing 'til you opened my eyes

F                C
Hey maybe we can stay
         Am                G
Maybe we can lay like this forever


F              C
Don't you know she is my favorite girl
Am                 G
I want to run away for days with her
F                  C
And if you promise not to say a thing
Am                 G
I'm gonna buy that girl a diamond ring

F      G
I said oooooh
C       Am
I think I love you
F      G
Oooooh
C       Am          F
I think I love you, I love you
G
My favorite girl

F G C Am

F        G      C      Am
We're in love love love
Love love love
We're in love love love
Love love
Добавлено: 19.06.2012
Другие материалы по этой песне:
  • Аккорды и текст

Страница создана 12.05.2012
http://primanota.ru/the-icarus-account/favorite-girl-chords.htm
Привет, Гость.
Предлагаем пройти революционный курс по гитаре.
Подарок от PrimaNota.Ru, забирай!