PrimaNota.ru - самый крупный в мире бесплатный архив песенных текстов, аккордов, табулатур и нот


The Icarus Account - Bad News - таба, видео

Регистрация Запомнить меня
Войти через:  Facebook Google Twitter Vk Yandex Mail.ru

The Icarus Account - Bad News - таба, видео

Печатать
Просмотров: 106
Capo on 5th fret

Note: where there is one mute strum shown, there are actually a few, 
but I don't feel like tabbing every one (even though I did for the chords),
so I left a little space for an estimate to how long the mute strums go on for.


Intro:
e|-----------------------------------------------------------------------3-3-3-x--3-3-3|
B|-----------------------------------------------------------------------0-0-0-x--0-0-0|
G|--------------------------------------------------x--0-0-0-x--0-0-0-x--0-0-0-x--0-0-0|
D|-----------------------------------------x--2-2-2-x--2-2-2-x--4-4-4-x--0-0-0-x--0-0-0|
A|-------------x-------------x-------------x--2-2-2-x--3-3-3-x--5-5-5-x--2-2-2-x--2-2-2|
E|-0h2p0-3-3-3-x-0h2p0-3-3-3-x-3-3-2-0-0-0-x--0-0-0-x--------x--------x--3-3-3-x--3-3-3|

Repeat for Verse 1

Pre-chorus:
e|---3-x-----------3-3-0-x--------------0-0-0-x--0-0-0-x--3-3-3-x--3-3-3|
B|---0-x-----------0-0-0-x--------------1-1-1-x--3-3-3-x--0-0-0-x--0-0-0|
G|---0-x-----------0-0-0-x--------------0-0-0-x--0-0-0-x--0-0-0-x--0-0-0|
D|---0-x-----------0-0-2-x--------------2-2-2-x--4-4-4-x--0-0-0-x--0-0-0|
A|---2-x-----------2-2-2-x--------------3-3-3-x--5-5-5-x--2-2-2-x--2-2-2|
E|---3-x-----------3-3---x--------------------x--------x--3-3-3-x--3-3-3|

Chorus:
e|---3-x-----------3-3-0-x---------------3-3-3-3-3-3-3-3-3-3-3-3-3-3-3-3|
B|---0-x-----------0-0-0-x---------------3-3-3-3-3-3-3-3-3-3-3-3-3-3-3-3|
G|---0-x-----------0-0-0-x---------------0-0-0-0-2-2-2-2-0-0-0-0-0-0-0-0|
D|---0-x-----------0-0-2-x---------------2-2-2-2-0-0-0-0-0-0-0-0-0-0-0-0|
A|---2-x-----------2-2-2-x---------------3-3-3-3-0-0-0-0-2-2-2-2-2-2-2-2|
E|---3-x-----------3-3---x-----------------------3-3-3-3-3-3-3-3-3-3-3-3|

Intro for Verse 2

Pre-chorus

Chorus 2:
e|---3-3-3-3-3-3-3-3-3-3-3-3-3-3-3-3-3-3-3-3-3-3-3-3-3-3-3-3-3-3-3-3-3-3|
B|---3-3-3-3-3-3-3-3-3-3-3-3-3-3-3-3-3-3-3-3-3-3-3-3-3-3-3-3-3-3-3-3-3-3|
G|---0-0-0-0-0-0-0-0-2-0-0-0-0-0-0-0-0-2-0-0-0-0-2-2-2-2-0-0-0-0-0-0-0-0|
D|---0-0-0-0-0-0-0-0-0-2-2-2-2-2-2-2-2-0-2-2-2-2-0-0-0-0-0-0-0-0-0-0-0-0|
A|---2-2-2-2-2-2-2-2-0-2-2-2-2-2-2-2-2-0-3-3-3-3-0-0-0-0-2-2-2-2-2-2-2-2|
E|---3-3-3-3-3-3-3-3-2-----------------2---------3-3-3-3-3-3-3-3-3-3-3-3|

Bridge x2:
e|---0---0-0-0---0---3-3-3-3-0-0-0-0|
B|---1---1-1/3---3---0-0-0-0-0-0-0-0|
G|---0---0-0-0---0---0-0-0-0-0-0-0-0|
D|---2---2-2/4---4---0-0-0-0-2-2-2-2|
A|---3---3-3/5---5---2-2-2-2-2-2-2-2|
E|-------------------3-3-3-3--------|

e|---0---------------------0-|
B|---1---------------------3-|
G|---0---------------------0-|
D|---2---------------------4-|
A|---3---------------------5-|
E|---------------------------|
So baby what's it gonna be, my kiss don't come easily

Intro - end with a single strum on |0|
                                   |3|
                                   |0|
                                   |4|
                                   |5|

Chorus 3:
e|---3-x-----------3-3-3-3-3-3-3-3-3-3-3-3-3-3-3-3-3-3-3-3-3-3-3-3------|
B|---3-x-----------3-3-3-3-3-3-3-3-3-3-3-3-3-3-3-3-3-3-3-3-3-3-3-3------|
G|---0-x-----------0-0-0-0-0-0-0-0-0-0-2-0-0-0-0-2-2-2-2-0-0-0-0-2------|
D|---0-x-----------0-0-2-2-2-2-2-2-2-2-0-2-2-2-2-0-0-0-0-2-2-2-2-0------|
A|---2-x-----------2-2-2-2-2-2-2-2-2-2-0-3-3-3-3-0-0-0-0-3-3-3-3-0------|
E|---3-x-----------3-3-----------------2---------3-3-3-3---------3------|

e|----------------------3--|
B|----------------------0--|
G|----------------------0--|
D|----------------------0--|
A|----------------------2--|
E|---3-3-3-0h2p0-3-3-3333--|
 So-                    bad
Добавлено: 18.10.2015
Другие материалы по этой песне:
  • Аккорды и текст

Страница создана 18.10.2015
http://primanota.ru/the-icarus-account/bad-news-chords.htm
Привет, Гость.
Предлагаем пройти революционный курс по гитаре.
Подарок от PrimaNota.Ru, забирай!