PrimaNota.ru - самый крупный в мире бесплатный архив песенных текстов, аккордов, табулатур и нот


The Hush Sound - Hourglass - текст песни, таба, видео

Регистрация Запомнить меня
Войти через:  Facebook Google Twitter Vk Yandex Mail.ru

The Hush Sound - Hourglass - текст песни, таба, видео

Печатать
Просмотров: 132
Well here it is another song of "So Sudden". I plan to just tab out the whole album 
or later. Well ive went through this 100 times and it goes perfectly with the music. so Enjoy.

Tabber= lackofcolor

Intro 0:00-0:33

e|----9--9-----5~-----|
B|----9--9-----5~-----|
G|----11-11----7~-----|
D|----11-11----7~-----| X8
A|----9--9-----5~-----|
E|--------------------|


Prechorus. 0:34.
e|--2--2--|
B|--2--2--|
G|--2--2--|
D|--4--4--|
A|--4--4--|
E|--2--2--|

0:35-0:49
e|----------------------------|
B|----------------------------|
G|-------7---2----------------| X2 Figure out strumming.
D|--4----7---2---2------------|
A|--4----5---0---2------------|
E|--2------------0------------|

0:50-1:30
e|----9--9-----5~-----|
B|----9--9-----5~-----|
G|----11-11----7~-----|
D|----11-11----7~-----| X10
A|----9--9-----5~-----|
E|--------------------|

Prechorus.  1:30
e|--2--2--|
B|--2--2--|
G|--2--2--|
D|--4--4--|
A|--4--4--|
E|--2--2--|


Chorus. 1:31-1:46
e|----------------------------|
B|----------------------------|
G|-------7---2----------------| X2 Figure out strumming.
D|--4----7---2---2------------|
A|--4----5---0---2------------|
E|--2------------0------------|


Bridge. 1:47-1:58

e|-----------------------------------|
B|-----------------------------------|
G|----------2------7-----------------|
D|---4------2-(x4)-7-(X8)------------|  X3 Palm Muted
A|---4-(x4)-0------5-----------------|
E|---2-------------------------------|
     .      .      .

1:58-2:03
e|----------------------|
B|----------------------|
G|-------2-2---7--------|
D|--4-4--2-2---7-(X8)---|
A|--4-4--0-0---5--------|
E|--2-2-----------------|
               .

2:03-2:39
e|-----------------------------------|
B|-----------------------------------|
G|----------2------7-----------------|
D|---4------2-(x4)-7-(X8)------------|
A|---4-(x4)-0------5-----------------|
E|---2-------------------------------|

Outro.

e|-----------------------|
B|-----------------------|
G|-------2-2---7~--------|
D|--4-4--2-2---7~--------|
A|--4-4--0-0---5~--------|
E|--2-2------------------|
Добавлено: 14.04.2012
Другие материалы по этой песне:
  • Аккорды и текст

Страница создана 31.03.2012
http://primanota.ru/the-hush-sound/hourglass-chords.htm
Привет, Гость.
Предлагаем пройти революционный курс по гитаре.
Подарок от PrimaNota.Ru, забирай!