PrimaNota.ru - самый крупный в мире бесплатный архив песенных текстов, аккордов, табулатур и нот


The Human Abstract - Polaris - таба, бас-таба, видео

Регистрация Запомнить меня
Войти через:  Facebook Google Twitter Vk Yandex Mail.ru

The Human Abstract - Polaris - таба, бас-таба, видео

Печатать
Просмотров: 251
Band: The Human Abtract
Song: Polarris
Tabber: Benjamin Downes 

Solo (From here)  (listen to cd to pick when it changes from clean to 
d|-----------------------------------------------------------------|overdrive
A|-----------------------------------------------------------------|for solo)
F|-----5-----5-----5-9-7h9p7------------------------12-10h12p10p9--|
C|---7-----7-----7-----------9-9/12~--10-9-10~--9~-----------------|
G|-0-----0-----0---------------------------------------------------|
D|-----------------------------------------------------------------|

d|---------------------------------------------------------|
A|---------------------------------------------------------|
F|------7-9-12-10h12p10p9-12-10h12p10p9-10-9h10p9p7-----9~-|
C|-7-10---------------------------------------------7~-----|
G|---------------------------------------------------------|
D|---------------------------------------------------------|

d|-------------------------------------------------------------------------------------------------|
A|-------------------------------------------------------------13--12h13p12p10-10~--8-10-10/12-10~-|
F|-----------12---------10-9~--9-10---------9----------9-10-12-------------------------------------|
C|-10-9h10p9----9-7h9p7-------------12~--12---10~-12~----------------------------------------------|
G|-------------------------------------------------------------------------------------------------|
D|-------------------------------------------------------------------------------------------------|
to here is clean| (From here)
d|------------------------------------------------------------------15-13h15p13p12~|
A|-8-10-10/13~--13b-15b-15b-15b-15--15b-15b-12-13b--13-12-13~--12~-----------------|
F|---------------------------------------------------------------------------------|
C|---------------------------------------------------------------------------------|
G|---------------------------------------------------------------------------------|
D|---------------------------------------------------------------------------------|

d|----------------------15-13h15p13p12-13-12h13p12---------------------------15-------13-12~-|
A|-------13-15-17-15-13----------------------------15-13~--15b-15b-15b-13-12----12\10--------|
F|-12-14-------------------------------------------------------------------------------------|
C|-------------------------------------------------------------------------------------------|
G|-------------------------------------------------------------------------------------------|
D|-------------------------------------------------------------------------------------------|

d|-12-13---------12------------12-13-15-15/20-17h20p17\15h17--15-----------------------------------|
A|------15~--15----13~--15~\x--------------------------------------18-17-h18-17~--17h18p17p15\13~\x|
F|-------------------------------------------------------------------------------------------------|
C|-------------------------------------------------------------------------------------------------|
G|-------------------------------------------------------------------------------------------------|
D|-------------------------------------------------------------------------------------------------|

d|-------15-------13-12-|
A|-13-12----12\10-------| (to hear is in over drive)
F|----------------------|
C|----------------------|
G|----------------------|
D|----------------------|
Добавлено: 13.04.2012
Другие материалы по этой песне:

Страница создана 13.04.2012
http://primanota.ru/the-human-abstract/polaris-chords.htm
Привет, Гость.
Предлагаем пройти революционный курс по гитаре.
Подарок от PrimaNota.Ru, забирай!