PrimaNota.ru - самый крупный в мире бесплатный архив песенных текстов, аккордов, табулатур и нот


The Horrors - So Now You Know - бас-таба, видео

Регистрация Запомнить меня
Войти через:  Facebook Google Twitter Vk Yandex Mail.ru

The Horrors - So Now You Know - бас-таба, видео

Печатать
Просмотров: 28
So Now You Know Bass Tab®

x4
G|-----------------|
D|--5(x6)----------|
A|-----------------|
E|----------3(x6)--|

x8
G|---------|
D|---------|
A|---------|
E|--3(x5)--|

x4
G|-------------|
D|--6----------|
A|-------------|
E|------3(x5)--|

x2
G|-------------|
D|--3----------|
A|-------------|
E|------1(x5)--|

x6
G|-------------|
D|--6----------|
A|-------------|
E|------3(x5)--|

x2
G|-------------|
D|--3----------|
A|-------------|
E|------1(x5)--|

x2
G|-------------|
D|--6----------|
A|-------------|
E|------3(x5)--|

G|-------------------------------|
D|--3(x8)-0(x8)------------------|
A|----------------3(x8)----------|
E|------------------------3(x8)--|

G|--------------------------------|
D|--3(x8)-0(x8)-------------------|
A|--------------------------------|
E|------------------------3(x16)--|

G|------------------------------|
D|---------0(x8)----------------|
A|--1(x8)---------3(x8)---------|
E|-----------------------3(x8)--|

G|-----------------------|
D|-----------------------|
A|--1(x8)----------------|
E|---------1(x8)-3(x16)--|

x4
G|-------------|
D|--6----------|
A|-------------|
E|------3(x5)--|

x2
G|-------------|
D|--3----------|
A|-------------|
E|------1(x5)--|

x6
G|-------------|
D|--6----------|
A|-------------|
E|------3(x5)--|

x2
G|-------------|
D|--3----------|
A|-------------|
E|------1(x5)--|

G|----------------|
D|--6---------6---|
A|----------------|
E|------3(x5)-----|

G|-------------------------------|
D|--3(x8)-0(x8)------------------|
A|----------------3(x8)----------|
E|------------------------3(x8)--|

G|--------------------------------|
D|--3(x8)-0(x8)-------------------|
A|--------------------------------|
E|------------------------3(x16)--|

G|------------------------------|
D|---------0(x8)----------------|
A|--1(x8)---------3(x8)---------|
E|-----------------------3(x8)--|

G|-----------------------|
D|-----------------------|
A|--1(x8)----------------|
E|---------1(x8)-3(x16)--|

G|-------------------------------|
D|--3(x8)-0(x8)------------------|
A|----------------3(x8)----------|
E|------------------------3(x8)--|

G|--------------------------------|
D|--3(x8)-0(x8)-------------------|
A|--------------------------------|
E|------------------------3(x16)--|

G|------------------------------|
D|---------0(x8)----------------|
A|--1(x8)---------3(x8)---------|
E|-----------------------3(x8)--|

G|----------------------------|
D|----------------------------|
A|--1(x8)---------------------|
E|---------1(x8)-3(x5)-3(x5)--|
Добавлено: 06.05.2016
Другие материалы по этой песне:
  • Аккорды и текст

Страница создана 06.05.2016
http://primanota.ru/the-horrors/so-now-you-know-chords.htm
Привет, Гость.
Предлагаем пройти революционный курс по гитаре.
Подарок от PrimaNota.Ru, забирай!