PrimaNota.ru - самый крупный в мире бесплатный архив песенных текстов, аккордов, табулатур и нот


The Horrors - Kicking Kay - текст песни, таба, видео

Регистрация Запомнить меня
Войти через:  Facebook Google Twitter Vk Yandex Mail.ru

The Horrors - Kicking Kay - текст песни, таба, видео

Печатать
Просмотров: 116
KICKING KAY

INTRO: (2 times)

E|---------------------------------------|
B|--12-11-12--11-12-11--10-9-10--9-10-9--|
G|---------------------------------------|
D|---------------------------------------|
A|---------------------------------------|
E|---------------------------------------|

E|---------------------------------------|
B|-------------------------10-9---------------|
G|--9-8-9--8-9-8--9-8--------------------|
D|---------------------------------------|
A|---------------------------------------|
E|---------------------------------------|

E|---------------------------------------|
B|--12-11-12--11-12-11--10-9-10--9-10-9--|
G|---------------------------------------|
D|---------------------------------------|
A|---------------------------------------|
E|---------------------------------------|

E|---------------------------------------|
B|---------------------------------------| (8) only played
G|--9-8-9b-(8)---------------------------| after first time.
D|---------------------------------------|
A|---------------------------------------|
E|---------------------------------------|


VERSE 1

E|---------------------------------------|
B|---------------------------------------|
G|---------------------------------------|
D|---------------------------------------| tremolo
A|--22222222-----------------------------|
E|---------------------------------------|

INTRO

VERSE 2

E|---------------------------------------|
B|---------------------------------------|
G|---------------------------------------|
D|---------------------------------------| 
A|--2------------------------------------| 4 times
E|---------------------------------------|

E|---------------------------------------|
B|---------------------------------------|
G|---------------------------------------|
D|---------------------------------------| tremolo
A|--22222222-----------------------------|
E|---------------------------------------|

(starts when they scream „hey hey“)
E|---------------------------------------|
B|---------------------------------------|
G|---------------------------------------|
D|---------------------------------------| tremolo
A|--222222-333-2222-00-------------------|
E|---------------------------------------|
 ||
E|---------------------------------------|
B|---------------------------------------|
G|---------------------------------------|
D|---------------------------------------| tremolo
A|--222222-333-2222-02-------------------|
E|---------------------------------------|

You can play it like that:
E|---------------------------------------|
B|---------------------------------------|
G|---------------------------------------| without
D|---------------------------------------| tremolo
A|--2-3-2-00----2-3-2-02-----------------|
E|---------------------------------------|

Then,
E|---------------------------------------|
B|---------------------------------------|
G|---------------------------------------|
D|---------------------------------------| 
A|--22-22--3---22-22--0------------------|
E|---------------------------------------|

End:
Faris sings something with head.
E|---------------------------------------|
B|---------------------------------------|
G|---------------------------------------|
D|-------------sometimes he hits:--------| tremolo
A|--22222222---------------------3-------|
E|---------------------------------------|



x
Добавлено: 19.03.2012
Другие материалы по этой песне:
  • Аккорды и текст

Страница создана 19.03.2012
http://primanota.ru/the-horrors/kicking-kay-chords.htm
Привет, Гость.
Предлагаем пройти революционный курс по гитаре.
Подарок от PrimaNota.Ru, забирай!