PrimaNota.ru - самый крупный в мире бесплатный архив песенных текстов, аккордов, табулатур и нот


The Horrors - Do You Remember - текст песни, таба, видео

Регистрация Запомнить меня
Войти через:  Facebook Google Twitter Vk Yandex Mail.ru

The Horrors - Do You Remember - текст песни, таба, видео

Печатать
Просмотров: 161
Tuning: Standard

Right, basically i assembled this from the live youtube stuff, and the other tabs, 
for the strumming

e|--------------------------------------------------|
B|--------------------------------------------------|
G|-13-13-13-13-13-13-13-13-13-13-13-13-19-19-19-19--|  x 3
D|--------------------------------------------------|
A|-11-11-11-11-11-11-11-11-11-11-11-11-17-17-17-17--|
E|--------------------------------------------------|

then

e|--------------------------------------------------|
B|-19-19-19-19-17-17-17-17-17-----------------------|
G|--------------------------------------------------|
D|-16-16-16-16-14-14-14-14-14-----------------------|
A|--------------------------------------------------|
E|--------------------------------------------------|

when faris starts singin..

(u go straight from the chord to the picked bit)

e|--------------------------------------------------|
B|--------------------------------------------------|
G|-13//-13-13----13//-13-13-11--11------------------|
D|--------------------------------------------------|
A|-11//-11-11----11//-11-11---14--14--12------------|
E|--------------------------------------------------|

then these chords, building up

e|-5----5--------|
B|-5----5--------|
G|-7----6--------|
D|-7----7--------|
A|-5----7--------|
E|------5--------|

then play the main riff x2 before these chords

e|--7---5--------|
B|--7---5--------|
G|--8---6--------|
D|--9---7--------|
A|--9---7--------|
E|--7---5--------|

then verse 2 same deal
"well if u wait"
all tremelo picking

e|------------------|
B|------------------|
G|-20--21-18-16-18--|
D|------------------|
A|-18--19-16-14-16--|
E|------------------|

the after the breakdown, (just mess with feedback, tremelo pick whatever)

then

e|-5----5--------|
B|-5----5--------|
G|-7----6--------|
D|-7----7--------|
A|-5----7--------|
E|------5--------|

same chorus again and end on

e|-7//----------|
B|-7//----------|
G|-9//----------|
D|-9//----------|
A|-7//----------|
E|--------------|

Effects wise just smother in delay and reverb, and dont use to heavy disortion the delay 
cover the wall of sound

Best Song off an incredible album enjoy!
Добавлено: 31.03.2012
Другие материалы по этой песне:
  • Аккорды и текст

Страница создана 02.03.2012
http://primanota.ru/the-horrors/do-you-remember-chords.htm
Привет, Гость.
Предлагаем пройти революционный курс по гитаре.
Подарок от PrimaNota.Ru, забирай!