PrimaNota.ru - самый крупный в мире бесплатный архив песенных текстов, аккордов, табулатур и нот


The Honeymoon Killers - Dcollage - бас-таба, видео

Регистрация Запомнить меня
Войти через:  Facebook Google Twitter Vk Yandex Mail.ru

The Honeymoon Killers - Dcollage - бас-таба, видео

Печатать
Просмотров: 57
Link : http://www.crammed.be/index.php?id=34&art_id=64

http://www.youtube.com/watch?v=teCdek_1L4U




----------------------------------------------|
-------3----------------7-5-------------------|
---3-5---5-3----------------8-----------------|
-5-----------5-3--------------10-10-10--------|

----------------------------------------------|
-------3----------------7-5-------------------|
---3-5---5-3----------------5-3-5-------------|
-5-----------5-3------------------------------|



basstheme played the whole song


melody
-------------------------------------------------------------------------|
--------------7-5--------------------------------------------------------|
5-7-8-5-------------5-5-5-5-7-5------5-5-5-7-8---------------------------|
---------5-6-------------------------------------------------------------|

------------------------------------------------------------------------|
--------------7-5-------------------------------------------------------|
5-7-8-5-------------5-5-5-5-7-5-----------------------------------------|
---------5-6------------------------------------------------------------|
Добавлено: 01.12.2013
Другие материалы по этой песне:
  • Аккорды и текст

Страница создана 01.12.2013
http://primanota.ru/the-honeymoon-killers/dcollage-chords.htm
Привет, Гость.
Предлагаем пройти революционный курс по гитаре.
Подарок от PrimaNota.Ru, забирай!