PrimaNota.ru - самый крупный в мире бесплатный архив песенных текстов, аккордов, табулатур и нот


The Honey Trees - Siren - таба, видео

Регистрация Запомнить меня
Войти через:  Facebook Google Twitter Vk Yandex Mail.ru

The Honey Trees - Siren - таба, видео

Печатать
Просмотров: 58
Уроки эстрадного вокала в Санкт-Петербурге
 Intro:
e |-------9-----------9-------|-------9-----------9-------|   
B |---11-----11---11-----11---|---11-----11---11-----11---| 
G |-11--11-11---11--11-11-----|-10--10-10---10--10-10-----|
D |---------------------------|---------------------------| 
A |---------------------------|---------------------------| (x2)
E |---------------------------|---------------------------|

  Verse I
|-------9-----------9-------|-------9-----------9-------|-------9-----------9-------|
|---11-----11---11-----11---|---11-----11---11-----11---|---11-----11---11-----11---|
|-11--11-11---11--11-11-----|-10--10-10---10--10-10-----|-11--11-11---11--11-11-----|
|---------------------------|---------------------------|---------------------------|
|---------------------------|---------------------------|---------------------------|
|---------------------------|---------------------------|---------------------------|

|-------9-----------9-------|-------7-----------7-------|-------7-----------7-------|
|---11-----11---11-----11---|---9-------9---9-------9---|---9-------9---9-------9---|
|-10--10-10---10--10-10-----|-9---9---9---9---9---9-----|-8---8---8---8---8---8-----|
|---------------------------|---------------------------|---------------------------|
|---------------------------|---------------------------|---------------------------|
|---------------------------|---------------------------|---------------------------|

|-------6-----------6-------|-------6-----------6-------|
|---7-------7---7-------7---|---6-------6---6-------6---|
|-6---6---6---6---6---6-----|-6---6---6---6---6---6-----|
|---------------------------|---------------------------|
|---------------------------|---------------------------| (x2)
|---------------------------|---------------------------|

  Pre-Chorus
|-------4-----------4-------|-------4-----------4-------|   
|---4-------4---4-------4---|---6-------6---6-------6---|
|-4---4---4---4---4---4-----|-6---6---6---6---6---6-----|
|---------------------------|---------------------------|
|---------------------------|---------------------------| (x2)
|---------------------------|---------------------------|

  Chorus
|-------4-----------4-------|-------4-----------4-------|-------4-----------4-------|
|---4-------4---4-------4---|---4-------4---4-------4---|---4-------4---4-------4---|
|-4---4---4---4---4---4-----|-4---4---4---4---4---4-----|-4---4---4---4---4---4-----|
|---------------------------|---------------------------|---------------------------|
|---------------------------|---------------------------|---------------------------|
|---------------------------|---------------------------|---------------------------|

|-------2-----------2-------|-------4-----------4-------|-------4-----------4-------|
|---2-------2---2-------2---|---4-------4---4-------4---|---4-------4---4-------4---|
|-3---3---3---3---3---3-----|-4---4---4---4---4---4-----|-4---4---4---4---4---4-----|
|---------------------------|---------------------------|---------------------------|
|---------------------------|---------------------------|---------------------------|
|---------------------------|---------------------------|---------------------------|

|-------4-----------4-------|-------2-----------2-------|-------4-----------4-------|
|---4-------4---4-------4---|---2-------2---2-------2---|---4-------4---4-------4---|
|-4---4---4---4---4---4-----|-3---3---3---3---3---3-----|-4---4---4---4---4---4-----|
|---------------------------|---------------------------|---------------------------|
|---------------------------|---------------------------|---------------------------|
|---------------------------|---------------------------|---------------------------|

|-------4-----------4-------|-------4-----------4-------|-------2-----------2-------|
|---4-------4---4-------4---|---4-------4---4-------4---|---2-------2---2-------2---|
|-4---4---4---4---4---4-----|-4---4---4---4---4---4-----|-3---3---3---3---3---3-----|
|---------------------------|---------------------------|---------------------------|
|---------------------------|---------------------------|---------------------------|
|---------------------------|---------------------------|---------------------------|

|-------4-----------4-------|-------4-----------4-------|-------5-----------5-------|
|---4-------4---4-------4---|---4-------4---4-------4---|---5-------5---5-------5---|
|-4---4---4---4---4---4-----|-4---4---4---4---4---4-----|-6---6---6---6---6---6-----|
|---------------------------|---------------------------|---------------------------|
|---------------------------|---------------------------|---------------------------|
|---------------------------|---------------------------|---------------------------|

|-------4-----------4-------|-------4-----------4-------|
|---5-------5---5-------5---|---5-------5---5-------5---|
|-6---6---6---6---6---6-----|-6---6---6---6---6---6-----|
|---------------------------|---------------------------|
|---------------------------|---------------------------|
|---------------------------|---------------------------|

  Pre-Verse
|-------9-----------9-------|-------9-----------9-------|   
|---11-----11---11-----11---|---11-----11---11-----11---| 
|-11--11-11---11--11-11-----|-10--10-10---10--10-10-----|
|---------------------------|---------------------------| 
|---------------------------|---------------------------| (x2)
|---------------------------|---------------------------|
 
  Verse II
|-------9-----------9-------|-------9-----------9-------|-------9-----------9-------|
|---11-----11---11-----11---|---11-----11---11-----11---|---11-----11---11-----11---|
|-11--11-11---11--11-11-----|-10--10-10---10--10-10-----|-11--11-11---11--11-11-----|
|---------------------------|---------------------------|---------------------------|
|---------------------------|---------------------------|---------------------------|
|---------------------------|---------------------------|---------------------------|

|-------9-----------9-------|-------7-----------7-------|-------7-----------7-------|
|---11-----11---11-----11---|---9-------9---9-------9---|---9-------9---9-------9---|
|-10--10-10---10--10-10-----|-9---9---9---9---9---9-----|-8---8---8---8---8---8-----|
|---------------------------|---------------------------|---------------------------|
|---------------------------|---------------------------|---------------------------|
|---------------------------|---------------------------|---------------------------|

|-------6-----------6-------|-------6-----------6-------|
|---7-------7---7-------7---|---6------6----6-------6---|
|-6---6---6---6---6---6-----|-6---6---6---6---6---6-----|
|---------------------------|---------------------------|
|---------------------------|---------------------------| (x2)
|---------------------------|---------------------------|

  Pre-Chorus
|-------4-----------4-------|-------4-----------4-------|   
|---4-------4---4-------4---|---6-------6---6-------6---|
|-4---4---4---4---4---4-----|-6---6---6---6---6---6-----|
|---------------------------|---------------------------|
|---------------------------|---------------------------| (x2)
|---------------------------|---------------------------|

  Chorus
|-------4-----------4-------|-------4-----------4-------|-------4-----------4-------|
|---4-------4---4-------4---|---4-------4---4-------4---|---4-------4---4-------4---|
|-4---4---4---4---4---4-----|-4---4---4---4---4---4-----|-4---4---4---4---4---4-----|
|---------------------------|---------------------------|---------------------------|
|---------------------------|---------------------------|---------------------------|
|---------------------------|---------------------------|---------------------------|

|-------2-----------2-------|-------4-----------4-------|-------4-----------4-------|
|---2-------2---2-------2---|---4-------4---4-------4---|---4-------4---4-------4---|
|-3---3---3---3---3---3-----|-4---4---4---4---4---4-----|-4---4---4---4---4---4-----|
|---------------------------|---------------------------|---------------------------|
|---------------------------|---------------------------|---------------------------|
|---------------------------|---------------------------|---------------------------|

|-------4-----------4-------|-------2-----------2-------|-------4-----------4-------|
|---4-------4---4-------4---|---2-------2---2-------2---|---4-------4---4-------4---|
|-4---4---4---4---4---4-----|-3---3---3---3---3---3-----|-4---4---4---4---4---4-----|
|---------------------------|---------------------------|---------------------------|
|---------------------------|---------------------------|---------------------------|
|---------------------------|---------------------------|---------------------------|

|-------4-----------4-------|-------4-----------4-------|-------2-----------2-------|
|---4-------4---4-------4---|---4-------4---4-------4---|---2-------2---2-------2---|
|-4---4---4---4---4---4-----|-4---4---4---4---4---4-----|-3---3---3---3---3---3-----|
|---------------------------|---------------------------|---------------------------|
|---------------------------|---------------------------|---------------------------|
|---------------------------|---------------------------|---------------------------|

|-------4-----------4-------|-------4-----------4-------|-------5-----------5-------|
|---4-------4---4-------4---|---4-------4---4-------4---|---5-------5---5-------5---|
|-4---4---4---4---4---4-----|-4---4---4---4---4---4-----|-6---6---6---6---6---6-----|
|---------------------------|---------------------------|---------------------------|
|---------------------------|---------------------------|---------------------------|
|---------------------------|---------------------------|---------------------------|

|-------4-----------4-------|-------4-----------4-------|
|---5-------5---5-------5---|---5-------5---5-------5---|
|-6---6---6---6---6---6-----|-6---6---6---6---6---6-----|
|---------------------------|---------------------------|
|---------------------------|---------------------------|
|---------------------------|---------------------------|

  Bridge/Outro
|-------2-----------2-------|-------2-----------2-------|-------2-----------2-------|
|---4-------4---4-------4---|---4-------4---4-------4---|---2-------2---2-------2---|
|-4---4---4---4---4---4-----|-4---4---4---4---4---4-----|-3---3---3---3---3---3-----|
|---------------------------|---------------------------|---------------------------|
|---------------------------|---------------------------|---------------------------|
|---------------------------|---------------------------|---------------------------|

|-------2-----------2-------|-------4-----------4-------|-------4-----------4-------|
|---2-------2---2-------2---|---5-------5---5-------5---|---4-------4---4-------4---|
|-3---3---3---3---3---3-----|-6---6---6---6---6---6-----|-4---4---4---4---4---4-----|
|---------------------------|---------------------------|---------------------------|
|---------------------------|---------------------------|---------------------------|
|---------------------------|---------------------------|---------------------------|

|-------2-----------2-------|-------2-----------2-------|-------4-----------4-------|
|---2-------2---2-------2---|---2-------2---2-------2---|---5-------5---5-------5---|
|-3---3---3---3---3---3-----|-3---3---3---3---3---3-----|-6---6---6---6---6---6-----|
|---------------------------|---------------------------|---------------------------|
|---------------------------|---------------------------|---------------------------|
|---------------------------|---------------------------|---------------------------|

|-------4-----------4-------|-------2-----------2-------|-------2-----------2-------|
|---4-------4---4-------4---|---2-------2---2-------2---|---2-------2---2-------3---|
|-4---4---4---4---4---4-----|-3---3---3---3---3---3-----|-3---3---3---3---3---3-----|
|---------------------------|---------------------------|---------------------------|
|---------------------------|---------------------------|---------------------------|
|---------------------------|---------------------------|---------------------------|

|-------4-----------4-------|-------4-----------4-------|
|---5-------5---5-------5---|---4-------4---4-----------|
|-6---6---6---6---6---6-----|-4---4---4---4---4---------|
|---------------------------|---------------------------|
|---------------------------|---------------------------|
|---------------------------|---------------------------|

 [Pause to End]
Добавлено: 07.03.2016
Другие материалы по этой песне:
  • Аккорды и текст

Страница создана 07.03.2016
http://primanota.ru/the-honey-trees/siren-chords.htm
Привет, Гость.
Предлагаем пройти революционный курс по гитаре.
Подарок от PrimaNota.Ru, забирай!