PrimaNota.ru - самый крупный в мире бесплатный архив песенных текстов, аккордов, табулатур и нот


The Homosexuals - Astral Glamour - аккорды и текст, бас-таба, видео

Регистрация Запомнить меня
Войти через:  Facebook Google Twitter Vk Yandex Mail.ru

The Homosexuals - Astral Glamour - аккорды и текст, бас-таба, видео

Печатать
Просмотров: 68
Astral Glamour
The Homosexuals
The Homosexuals
"Astral Glamour"
The Homosexuals E.P. (1979)

www.myspace.com/thehomosexuals

standard tuning

Chords:

D: xx0232   G7M/D  : xx0032   Ddim: xx0132 

E: 022100   Em: 022000  C#: x4666x   A: x0222x

A6: x07675   A7: x07685   F#m: 244222

F6: x33231   G6: x55453   Bm: x24432


Intro                                              *drums come in
D      G7M/D     Ddim


E    Em E    Em E    Em E            *Riff 1

Riff 1
 [---Palm Mute---]   
|-----------------|
|-----------------|
|-----------------|
|-5-4-5-4-5-4-2-0-|
|-0-0-0-0-0-0-0-0-|
|-----------------|


C#      A        F#m                E
 Global   pupils    radiating interference

E  D             D  A  E             E
     Piccasso!           Lamborgini, coke, and dry martini

*Riff 1

C#      A        F#m                E
 Astral   glamour      semen in the region

E  D             D  A  E                E
     Immaculate!         Condescending, gaily rendezvousing, 

 E                   *Riff 2                  
 gaily rendezvousing  Ooh-way ooh-way ooh-way! 

Riff 2 -unison bend-]                          (bass fill)
|---------------------------------------------------------|
|-5--5--5--5--5--5--5----2----2----2----2----2------------|
|-7b(9)(9)-7b(9)(9)p7----2----2----2----2----2------------|
|------------------------2----2----2----2----2------------|
|------------------------0----0----0----0----0------------|
|---------------------------------------------------------|
+
|---------444-------|
|-----555-555-555---|
|-666-666-----666---|
|-777---------------|
|-------------------|
|-------------------|


 A                    A
 Rapid channel racing turbine interfacing

 A                    A
 Rapid channel racing turbine interfacing

A7            A              A
  Say goodbye   to telephone sex (bye-bye)

A6              A                           
    Flags fly,    fair is fair    with barriers 

 E  D         F6   G6       A                A
 shining           Laughing virgins (virgins, virgins)

             D          F6   G6          A        F6  G6    A w/ Riff 3
 Vertical and  white      So foreign and mobile           tonight!

Riff 3
  A                    D         E
|-9-----9------9-------10-------/12-------||
|---11--11-------11----10-10----/12-12----||
|-----9---11p9--------------11--------13--|| x 8
|---------11p9----------------------------||
|-----------------------------------------||
|-----------------------------------------||
(Play this over the outro chord sequence)

D     E          A          D
  The ladies are waiting      yes,

      E          A          
  the ladies are waiting     

D     E          A
      Ladies in  waiting

D     E          A  
      Ladies in  waiting

D     E          A
      Ladies in  waiting

D     E          A
      Ladies in  waiting

D     E          A
      Ladies in  waiting

D     E          A  Bm
      Ladies in  waiting


Waiting  Waiting  Waiting   

A      A


Cheers,
Bennyshambles78
Добавлено: 26.09.2013
Другие материалы по этой песне:
  • Аккорды и текст

Страница создана 17.07.2013
http://primanota.ru/the-homosexuals/astral-glamour-chords.htm
Привет, Гость.
Предлагаем пройти революционный курс по гитаре.
Подарок от PrimaNota.Ru, забирай!