PrimaNota.ru - самый крупный в мире бесплатный архив песенных текстов, аккордов, табулатур и нот


The Holly Springs Disaster - Nice Night For A Neck Injury - таба, видео

Регистрация Запомнить меня
Войти через:  Facebook Google Twitter Vk Yandex Mail.ru

The Holly Springs Disaster - Nice Night For A Neck Injury - таба, видео

Печатать
Просмотров: 123
Уроки эстрадного вокала в Санкт-Петербурге
-------------------------------------------------------------------------------|
-------------------------------------------------------------------------------|
------------------------------------------------------------3*-----------------|
--0-4p0-3p0----4p0-3p0---4p0-3p0-0-4p0-3p0----4p0-3p0--------------------------|
--0-2p0-3p0-00-2p0-3p0-0-2p0-3p0-0-2p0-3p0-00-2p0-3p0-0-000--------------------|
--0-----3p0-00-----3p0-0-----3p0-0-----3p0-00-----3p0-0-000--------------------|
            ..         .                   ..         . ...
-------------------------------------------------------------------------------|
-------------------------------------------------------------------------------|
-------------------------------------------------------------------------------|
--0-4p0-3p0----4p0-3p0---3-------0-4p0-3p0----4p0-3p0---3----------------------|
--0-2p0-3p0-00-2p0-3p0-0-3-0-0-0-0-2p0-3p0-00-2p0-3p0-0-3-0-0-0----------------|
--0-----3p0-00-----3p0-0-3-0-0-0-0-----3p0-00-----3p0-0-3-0-0-0----------------|
            ..         .   . . .           ..         .   . . .
--------------------------------------------------------------------------------|
--------------------------------------------------------------------------------|
--------------------------------------------------------------------------------|
------3-2-----3-2-2-----3/101010------------------3----3----3-2-3---------------|
--2p0-3-2-2p0-3-2-2--x2-3/8-8-8--x3-{0n 3rd time}-3-00-3-00-3-2-3---------------|
------3-2-----3-2-2-----3/8-8-8-------------------3-00-3-00-3-2-3---------------|
                                                    ..   ..
--------------------------------------------------------------------------------|
---------------------------------------10-----10------------10-----10-----------|
------------------------------------10---10-10--10-----10-----10-10-------------|
---(On 2nd time)-3----3----3----8-8---8----8------8-7-7--7-7----7---------------|
-----------------3-00-3-00-3-0--------------------------------------------------|
-----------------3-00-3-00-3-0--------------------------------------------------|
                   ..   ..   .
-------------------------------------------------------------------------------|
-------------------------------------------------------------------------------|
-------------------------------------------------------------------------------|
--3/101010----------3----3----3---2-----2-----2-----2-------2------------------|
--3/8-8-8---x3-then-3-00-3-00-3-0-2-0-0-2-0-0-2-0-0-2-000-0-2-0----------------|
--3/8-8-8-----------3-00-3-00-3-0-2-0-0-2-0-0-2-0-0-2-000-0-2-0----------------|
                      ..   ..   .   . .   . .   . .   ... .   .
-------------------------------------------------------------------------------|
----------------------------------------10---10----------13-10--13-13----x4----|
------------------------------------------10-------10-10-------9--9------------|
-------------------------------------------------------------------------------|
--1-----1-----1-----1-------1---1---/8-8----8----------------------------------|
--1-0-0-1-0-0-1-0-0-1-000-0-1-0-1----------------------------------------------|
--1-0-0-1-0-0-1-0-0-1-000-0-1-0-1----------------------------------------------|
    . .   . .   . .   ... .   .
-------------------------------------------------------------------------------|
-----10---------10-----10-----10----------13-10--13-13---x4--------------------|
-------10--10-10--10-10--10-10--10--10-10-------9--9---------------------------|
--8-8--------------------------------------------------------------------------|
-------------------------------------------------------------------------------|
-------------------------------------------------------------------------------|
           .  .   .  .   .  .   .
------------------15------------------------------------------------------------|
---------10-13-10---13-----(4th time)-------------------------------------------|
--10---10-------------14--------------------10h12-14-12-10h12p10--10------------|
--10----------------------------------10h12---------------------12--12----------|
--8-----------------------------------------------------------------------------|
--------------------------------------------------------------------------------|
Outro thing
-------------------------------------------------------------------------------|
----10-13-10-13----------------------------------------------------------------|
--10--------9--9---------------------------------------------------------------|
-------------------------------------------------------------------------------|
-------------------------------------------------------------------------------|
-------------------------------------------------------------------------------|

-
Добавлено: 13.06.2012
Другие материалы по этой песне:
  • Аккорды и текст

Страница создана 13.06.2012
http://primanota.ru/the-holly-springs-disaster/nice-night-for-a-neck-injury-chords.htm
Привет, Гость.
Предлагаем пройти революционный курс по гитаре.
Подарок от PrimaNota.Ru, забирай!