PrimaNota.ru - самый крупный в мире бесплатный архив песенных текстов, аккордов, табулатур и нот


The Holly Springs Disaster - My Pet Monster - таба, видео

Регистрация Запомнить меня
Войти через:  Facebook Google Twitter Vk Yandex Mail.ru

The Holly Springs Disaster - My Pet Monster - таба, видео

Печатать
Просмотров: 113
my pet monster
the holly springs disaster

• - palm mute
/ - slide
x - mute
* pinch harmonic
h - hammer
p - pull off

intro
D ----------------------------------------|
A ----------------------------------------|
F -10-10-7-7-------7-7----------------7-7-|
C -----------10-10-----10-10-7-7-10-10----|
G ----------------------------------------|
C ----------------------------------------|

D ------------------------|----------|---|
A ------------------------|----------|---|
F ------------------------|-••••-•-•-|-•-|
C -x-3-8-8-8-888-x-3---*--|-0000-0-0-|-0-|
G -x-3-8-8-8-888-x-3--(8)-|-0000-0-0-|-0-|
C -x-3-8-8-8-888-x-3------|-0000-0-0-|-0-|

D ---------------------------------------|
A ---------------------------------------|
F -------7-10-••-•-•--------7-10---------|
C -0-3-x-x-x--00-0-0--0-3-x-x-x----------|
G -0-3-x-5-8--00-0-0--0-3-x-5-8--3h5-3h5-|
C -0-3-x------00-0-0--0-3-x--------------|

im not to sure on this part

D --------------------|--------------------|
A --------------------|--------------------|
F -------7-10---------|-•••-••-•••-•••-•••-|
C -0-3-x-x-x--12p10p0-|-000-00-000-000-000-|
G -0-3-x-5-8--12p10p0-|-000-00-000-000-000-|
C -0-3-x------12p10p0-|-000-00-000-000-000-|

D -----------------------|----|
A -----6-6-------6-----6-|-6/-| slide up
F -•-•-9-9-••--•-9-•••-9-|-9/-|
C -0-0-----00--0---000---|----|
G -0-0-----00--0---000---|----|
C -0-0-----00--0---000---|----|

D -----------------------|
A -----2-2-------2-----2-|
F -•-•-5-5-••--•-5-•••-5-|
C -0-0-----00--0---000---|
G -0-0-----00--0---000---|
C -0-0-----00--0---000---|

D ----------------------------------------|
A ----------------------------------------|
F -10-10-7-7-------7-7----------------7-7-|
C -----------10-10-----10-10-7-7-10-10----|
G ----------------------------------------|
C ----------------------------------------|

chords

D -------------|-----|---|
A -------------|-----|---| DONT GO
F -------------|-----|---|
C -8-5-3-5-7-8-|-8-5-|-0-|
G -8-5-3-5-7-8-|-8-5-|-0-|
C -8-5-3-5-7-8-|-8-5-|-0-|

this is the left speaker for this part

D -------------------------------|
A ---------------------12h15-----|
F -•••-••--------12h14--------••-|
C -000-00--12h15--------------00-|
G -000-00---------------------00-|
C -000-00---------------------00-|

D ------------------------------------------------------------------|
A ------------------------------------------------------12h15-------|
F -•••-••--------12h14-------12h14--•••-••--------12h14-------12h14-|
C -000-00--12h15-------12h15--------000-00--12h15-------------------|
G -000-00---------------------------000-00--------------------------|
C -000-00---------------------------000-00--------------------------|
play this riff twice

D -----------------------------------------------------------------|
A ---------------12h15-------12h15---------------12h15-12h15-12h15-|
F -•••-••--12h14-------12h14--------•••-••-12h14-------------------|
C -000-00---------------------------000-00-------------------------|
G -000-00---------------------------000-00-------------------------|
C -000-00---------------------------000-00-------------------------|
play this riff twice

D -------------|-------------|---|
A -------------|-------12h15-|---|
F -------12h14-|-12h14-------|---|
C -12h15-------|-------------|-0-|
G -------------|-------------|-0-|
C -------------|-------------|-0-|

fuckin right.
Добавлено: 04.03.2012
Другие материалы по этой песне:

Страница создана 04.03.2012
http://primanota.ru/the-holly-springs-disaster/my-pet-monster-chords.htm
Привет, Гость.
Предлагаем пройти революционный курс по гитаре.
Подарок от PrimaNota.Ru, забирай!