PrimaNota.ru - самый крупный в мире бесплатный архив песенных текстов, аккордов, табулатур и нот


The Holloways - Dancefloor - таба, видео

Регистрация Запомнить меня
Войти через:  Facebook Google Twitter Vk Yandex Mail.ru

The Holloways - Dancefloor - таба, видео

Печатать
Просмотров: 105
-------------------------------------------------------------------------------
                             Dancefloor – The Holloways
-------------------------------------------------------------------------------
Tabbed by: Stuart
Email: stuart_cowan90@hotmail.com

Tuning: Standard



Intro

e|--------------------------|
B|--------------------------|
G|--------------------------| x2
D|----11---11---9-9-9-8--9--|
A|-99-9-99-9-99-9-9-9-9--9--|
E|-77---77---77-------------|

Then…

e|----------------------------------------------|
B|----------------------------------------------|
G|----11----11----9-9-9-8-9-----11---11---11~---|
D|-99-9--99-9--99-9-9-9-9-9--99-9--9-9--9-9-~---|
A|-77----77----77------------77----7----7-------|
E|----------------------------------------------|

Verse

“dance floor”
e|-7-7-xx----------|
B|-7-7-xx----------|
G|-8-8-xx----------| x8
D|-9-9-xx----------|
A|-9-9-xx----------|
E|-7-7-xx----------|


“She was lookin at me, smiling at me….” (listen for timing)
e|---------------------------------------------------------------------------|
B|---------------------------------------------------------------------------|
G|-------99~-----------99~-----------------9-9-xx-9-9-xx-9-9-xx-9-9----------|
D|-------99~-----------99~-----------------9-9-xx-9-9-xx-9-9-xx-9-9----------|
A|-------77~-----------77~-----------------7-7-xx-7-7-xx-7-7-xx-7-7----------|
E|---------------------------------------------------------------------------|

Then play the intro again for the “I must be pretty…” part

Verse 2, same as verse 1

Chorus

  “Where are my friends…” ( bend the 8 on the B chord)
e|--8---8---8---8---8---8---10-10-xx--7-xx-7-xx-7-xx-7------|
B|--8---8---8---8---8---8---10-10-xx--7-xx-7-xx-7-xx-7------|
G|--9---9---9---9---9---9---11-11-xx--8-xx-8-xx-8-xx-8------| x2
D|--10--10--10--10--10--10--12-12-xx--9-xx-9-xx-9-xx-9------|
A|--10--10--10--10--10--10--12-12-xx--9-xx-9-xx-9-xx-9------|
E|--8---8---8---8---8---8---10-10-xx--7-xx-7-xx-7-xx-7------|

Play intro again only replace the E chord part with more of the B chord

Play the B chord part of the verse again, then play this:
(You'll hear the timing)

e|---------------------------------------------------------------------------|
B|---------------------------------------------------------------------------|
G|-9~~-9-xx999--------999----------------------------------------------------|
D|-9~~-9-xx999--------999----------------------------------------------------|
A|-7~~-7-xx777--------777----------------------------------------------------|
E|---------777--------777----------------------------------------------------|

Then the chorus again, playing into this
(Extend E chord on the second time)

e|------------------------------------|
B|------------------------------------|
G|-8888888888888888-9999999999999999--| x2
D|-9999999999999999-9999999999999999--|
A|-9999999999999999-7777777777777777--|
E|-7777777777777777-------------------|

Then play

e|-------------------------------------------------------------|
B|-------------------------------------------------------------|
G|-----------------------------------11-----11-----11-----11---|
D|-----11------11-----11-----11----9------9------9------9------|
A|---9-------9------9------9-----7------7------7------7--------|
E|-7-------7------7------7-------------------------------------|


Verse 3, same as other verses

Chorus 2 again (leads into the chord plays) until another intro is played

Then play the verse again but slower and end on a ringing B chord


I think that should be enough to get it, its pretty accurate I think.


| /  slide up
| \  slide down
| h  hammer-on
| p  pull-off
| ~  vibrato
| +  harmonic
| x  Mute note
===============================================================================

Добавлено: 14.05.2012
Другие материалы по этой песне:
  • Аккорды и текст

Страница создана 14.05.2012
http://primanota.ru/the-holloways/dancefloor-chords.htm
Привет, Гость.
Предлагаем пройти революционный курс по гитаре.
Подарок от PrimaNota.Ru, забирай!