PrimaNota.ru - самый крупный в мире бесплатный архив песенных текстов, аккордов, табулатур и нот


The Holidays - Moonlight Hours - бас-таба, видео

Регистрация Запомнить меня
Войти через:  Facebook Google Twitter Vk Yandex Mail.ru

The Holidays - Moonlight Hours - бас-таба, видео

Печатать
Просмотров: 65
The Holidays
https://www.facebook.com/theholidaysband
http://www.myspace.com/theholidays
https://soundcloud.com/the-holidays-band
http://en.wikipedia.org/wiki/The_Holidays

Film Clip for Moonlight Hours
http://www.youtube.com/watch?v=xcVzsJQ0N1E

-------------

Love this band. What no tabs? let me sort this shit out.

Pretty straight forward it's mostly the same riff the whole way through.

    | E                   | D

G|-------------------------------------------------|
D|--------------------9----------------------------|
A|----7---7---77--9-7---7---5--5--55---------------|
E|------------------------------------5---5--------|


Sometimes (I think just the chorus) they play this slight variation.

    | E                   | D

G|-------------------------------------------------|
D|-------------------------------------------------|
A|----7---7---77--9---7-----5--5--55---------------|
E|------------------------------------5---5--------|
Добавлено: 28.10.2013
Другие материалы по этой песне:
  • Аккорды и текст

Страница создана 28.10.2013
http://primanota.ru/the-holidays/moonlight-hours-chords.htm
Привет, Гость.
Предлагаем пройти революционный курс по гитаре.
Подарок от PrimaNota.Ru, забирай!