PrimaNota.ru - самый крупный в мире бесплатный архив песенных текстов, аккордов, табулатур и нот


The Holdup - Motion - таба, видео

Регистрация Запомнить меня
Войти через:  Facebook Google Twitter Vk Yandex Mail.ru

The Holdup - Motion - таба, видео

Печатать
Просмотров: 29
-------------------------------------------------------------------------------
                             SONG NAME - Band Name
-------------------------------------------------------------------------------
Tabbed by:
E-mail:

Tuning: Standard
Capo: V

e|---------------------------------------------------------------------------------------|
B|--------0----------1-------------------------------------------------------------------|
G|----------0----------0-------0---------0-----------------------------------------------|
D|------3----------3---------------------------------------------------------------------|
A|-3/5---------3/5-----------3---3-----3---3---------------------------------------------|
E|-----------------------5\3------5\3----------------------------------------------------|

************************************

| /   slide up
| \   slide down
| h   hammer-on
| p   pull-off
| ~   vibrato
| +   harmonic
| x   Mute note
| b   Bend
| pb  Pre-bend
| br  Bend release
| pbr Pre-bend release
| brb Bend release bend

************************************
Добавлено: 16.12.2015
Другие материалы по этой песне:
  • Аккорды и текст

Страница создана 16.12.2015
http://primanota.ru/the-holdup/motion-chords.htm
Привет, Гость.
Предлагаем пройти революционный курс по гитаре.
Подарок от PrimaNota.Ru, забирай!