PrimaNota.ru - самый крупный в мире бесплатный архив песенных текстов, аккордов, табулатур и нот


The Hiatus - The Flare - таба, видео

Регистрация Запомнить меня
Войти через:  Facebook Google Twitter Vk Yandex Mail.ru

The Hiatus - The Flare - таба, видео

Печатать
Просмотров: 99
Tabbed by: malphranky

Tuning:Drop D

As always listen to the song very carefully,study the parts and have fun.

the HIATUS is a band that I love with a passion as it has one of my idols (Lead vocals/ 
Rhythm guitarist Takeshi Hosomi)and this song is just unbelievable.

(Side Note: Most if not all of the song is down picked.)

First half of Intro: Guitar 1 & 2

e|-------------------------------------------------|
B|-------------------------------------------------|
G|-------------------------------------------------|
D|-------------------------------------------------|    2X
A|-------------------------------------------------|
D|-00-1212-00-1212-00-13---------------------------|

then:
Guitar 1 plays first half of intro 2 more times.

Second Half of Intro:Guitar 2

e|-------------------------------------------------|
B|-------------------------------------------------|
G|-------------------------------------------------|
D|-------------------------------------------------|   2X
A|-------------------------------------------------|
D|-00-1515-00-1515-00-17---------------------------|

Verse:Play until chorus

e|-------------------------------------------------|
B|-------------------------------------------------|
G|-------------------------------------------------|
D|-------------------------------------------------|
A|-------------------------------------------------|
D|-888888888888888-7777777777777777----------------|

Chorus: Guitar 1

e|-------------------------------------------------|
B|-------------------------------------------------|
G|-------------------------------------------------|
D|-33333333333-55555555555-7777777777--------------| 2X
A|-11111111111-33333333333-5555555555--------------|
D|-------------------------------------------------|

(This part can be very tricky and hard to hear, but just listen closely to the song.)

Lead:

e|----------------------------------|
B|---10----8----10----8----10-------|
G|-10---10---10----10---10----10----|
D|----------------------------------|  2X
A|----------------------------------|
D|----------------------------------|

then:

e|----8---------8------------------8--------8--------8----------|
B|---------8---------8----8-------------8--------8-----10-------|
G|-10---10---10---10---10---10--10---10---10--10---10-----10----|
D|--------------------------------------------------------------|
A|--------------------------------------------------------------|
D|--------------------------------------------------------------|

then:

e|-----------------------------------------------------|
B|-----------------------------------------------------|
G|-10101010101010\99999999/1212121212\555/77\55--------|
D|-----------------------------------------------------|
A|--8-8-8-8-8-8-8\77777777/1010101010\333/55\33--------|
D|-----------------------------------------------------|


Finally:

e|---------------------------------------------|
B|---------------------------------------------|
G|-10101010101010\99999999/14141414141414------|
D|---------------------------------------------|
A|--8-8-8-8-8-8-8\77777777/12121212121212------|
D|---------------------------------------------|


Intro
Verse

Chorus:

The only difference with this chorus is that the lead guitar ends the chorus with 8 and 
10 on the A and G strings after playing the 12 and 14 on the A and G strings.

e|----------------------------------------------------|
B|----------------------------------------------------|
G|-10~------------------------------------------------|
D|----------------------------------------------------|
A|--8~------------------------------------------------|
D|----------------------------------------------------|

Then Bridge:

There is guitar playing while all the feedback is going crazy and the piano is playing 
but I can't figure it out.

This part is the ending of the bridge that builds up to
the chorus.

e|-------------------------------------------------|
B|-------------------------------------------------|
G|-------------------------------------------------|
D|-333333333-555555555-777777777-------------------| 1X
A|-111111111-333333333-555555555-------------------|
D|-------------------------------------------------|
   ********* ********* *********

Then:

e|-------------------------------------------------|
B|-------------------------------------------------|
G|-------------------------------------------------|
D|-33333333-55555555-7777777777777777777-----------|
A|-11111111-33333333-5555555555555555555-----------|
D|-------------------------------------------------|
   ******** ******** ************

Then Final Chorus: which is same as previous choruses.

Then outro: which is basically the intro but it ends with guitar 1 ending on 13th fret 
of the low E string (Which is tuned to a D in this song)
and guitar 2 ends on the same string but on the 17th fret.

| /  slide up
| \  slide down
| h  hammer-on
| p  pull-off
| ~  vibrato
| +  harmonic
| x  Mute note
===============================================================================
Добавлено: 10.06.2012
Другие материалы по этой песне:

Страница создана 12.04.2012
http://primanota.ru/the-hiatus/the-flare-chords.htm
Привет, Гость.
Предлагаем пройти революционный курс по гитаре.
Подарок от PrimaNota.Ru, забирай!